Search tabs:
Browse artists: 0-9 | A | B | C | D | E | F | G | H | I | J | K | L | M | N | O | P | Q | R | S | T | U | V | W | X | Y | Z
/ NOFX / Heavy Petting Zoo (1996) / Philthy Phil Philanthropist guitar tab


Date: Mon, November 3 1997
From: Peter Ferragine (iginition@yesic.com)
Group: NOFX
Album: Heavy Petting Zoo
Released: 1996 epitaph records
Track: 2
Title: philthy phil philanthropist


intro 

guitar 1 - repeat a few times

|-----------------------------------------------------|
|-----------------------------------------------------|
|-------------------------------------5-5-5-5-5-5-5-5-|
|-5-5-5-5-5-5-5-5-5-5-3-3-3-3-3-3-3-3-5-5-5-5-5-5-5-5-|
|-5-5-5-5-5-5-5-5-5-5-3-3-3-3-3-3-3-3-3-3-3-3-3-3-3-3-|
|-3-3-3-3-3-3-3-3-3-3-1-1-1-1-1-1-1-1-----------------|

guitar 2

|-------------------------------------------------------------------------|
|-------------------------------------------------------------------------|
|-------------------------------------------------------------------------|
|---------------------------------------------------5-5-5-5-7-7-4-4-4-4---|
|-5-5-5-5-5-3-2-3-3-3-2-0-------------5-5-5-5-5-3-2---------------------5-|
|-------------------------3-3-3-3-3-3-------------------------------------|

verse - repeat a few times

|-3-3-3-3-3-3-3-3-3-3-3-3-2-2-2-2-|
|-3-3-3-3-3-3-3-3-1-1-1-1-1-1-1-1-|
|---------------------------------|
|---------------------------------|
|---------------------------------|
|---------------------------------|

then...

|------------------------------------------------------------------------
|------------------------------------------------------------------------
|---------------------------------5-5-5-5-5-5-7-7-7-7-7-7----------------
|-5-5-5-5-5-5-5-5-2-2-2-2-2-2-2-2-5-5-5-5-5-5-7-7-7-7-7-7-5--5--5--5--5--
|-5-5-5-5-5-5-5-5-2-2-2-2-2-2-2-2-3-3-3-3-3-3-5-5-5-5-5-5-5--5--5--5--5--
|-3-3-3-3-3-3-3-3-0-0-0-0-0-0-0-0-------------------------3--3--3--3--3--

 ------------------------------------------------------------------------|
 ------------------------------------------------------------------------|
 ---------------------------------5-5-5-5-5-5-7-7-7-7-7-7----------------|
 -5-5-5-5-5-5-5-5-7-7-7-7-7-7-7-7-5-5-5-5-5-5-7-7-7-7-7-7-5--5--5--5--5--|
 -5-5-5-5-5-5-5-5-7-7-7-7-7-7-7-7-3-3-3-3-3-3-5-5-5-5-5-5-5--5--5--5--5--|
 -3-3-3-3-3-3-3-3-5-5-5-5-5-5-5-5-------------------------3--3--3--3--3--|

chorus

|--------------------------------------------------------------------------
|--------------------------------------------------------------------------
|-----------------7-7-7-7-7-7-7-7-----------------5-5-5-5-5-5-5-5--5--4----
|-7-7-7-7-7-7-7-7-7-7-7-7-7-7-7-7-5-5-5-5-5-5-5-5-5-5-5-5-5-5-5-5--5--4--7-
|-7-7-7-7-7-7-7-7-5-5-5-5-5-5-5-5-5-5-5-5-5-5-5-5-3-3-3-3-3-3-3-3--3--2--7-
|-5-5-5-5-5-5-5-5-----------------3-3-3-3-3-3-3-3------------------------5-

 -----------------------------------------------------------------------|
 -----------------------------------------------------------------------|
 -----------------7-7-7-7-7-7-7-7---------------------------------------|
 -7-7-7-7-7-7-7-7-7-7-7-7-7-7-7-7-5-5--3-5-5--3-5-5--3-5-5--3-5-5--3-5--|
 -7-7-7-7-7-7-7-7-5-5-5-5-5-5-5-5-5-5--3-5-5--3-5-5--3-5-5--3-5-5--3-5--|
 -5-5-5-5-5-5-5-5-----------------3-3--1-3-3--1-3-3--1-3-3--1-3-3--1-3--|

outro - same as intro

lyrics

there's something wrong with mass consumption
why do we want what we don't need
alcohol burn it clean, asphalt methamphetamine
will make it seem all right, it's gonna make it seem all right
living in the hunger underground
some people say i got a problem with authority so
what if i do man it beats relinquishing control
philthy phil philanthropist, you've taken when you should have give away
philthy phil you gave to us, we cannot repay
there's something grand about being nothing
there's something lame about being grand
alcohol squirting gun, don't want no holidays in the sun
that's me not being you, that's me not being you
either part of the solution or the problem
can there not be a middle ground for just the anybody
replace superman with joe ordinary
philthy phil philanderer, you've taken when you shoulda give away
philthy phil you gave to us, more then we cannot repay



NOFX albums
2003 War on Errorism
2000 Pump Up the Valuum
1997 So Long And Thanks For All The Shoes
1996 Heavy Petting Zoo
1995 I Heard They Suck Live!!
1994 Punk in Drublic
1993 The Longest Line
1993 White Trash, Two Heebs & A Bean
1991 Ribbed
1989 S & M Airlines
Heavy Petting Zoo tabs
01Hobophobic (Scared Of Bums) tabbass tab
02Philthy Phil Philanthropist tabbass tab
03Freedom Lika Shopping Cart tabbass tab
04Bleeding Heart Disease tabbass tab
05Hot Dog In A Hallway tabbass tab
06Release The Hostages tabbass tab
07Liza tabbass tab
08What's The Matter With Kids Today? tabbass tab
09Love Story tabbass tab
10Black And White, The tabbass tab
11Whatever Didi Wants tabbass tab
12August 8th tabbass tab
13Drop The World tabbass tab

 

1