Search tabs:
Browse artists: 0-9 | A | B | C | D | E | F | G | H | I | J | K | L | M | N | O | P | Q | R | S | T | U | V | W | X | Y | Z
/ NOFX / Heavy Petting Zoo (1996) / Release The Hostages guitar tab


Date: Thurs, November 6 1997
From: Peter Ferragine (iginition@yesic.com)
Group: NOFX
Album: Heavy Petting Zoo 
Released: 1996 epitaph records
Track: 6
Title: release the hostages

: - let ring
x - scratch
/ \ - slide
pm - palm mute


intro - play the first part, then play the second a couple of times, and then
        play the first part again

                                          pm__________________|
|-----------------------------------------|-------------------|
|-----------------------------------------|-------------------|
|-14---12---12---10---14---12---12---10---|-------------------|
|-14---12---12---10---14---12---12---10---|-------------------|
|-12---10---10----8---12---10---10----8---|-------------------|
|-----------------------------------------|-5-5-5-7/8\7-5-5-5-|

verse - play the first part, then the second, then repeat the second

|---------------------------------------------------------------------
|---------------------------------------------------------------------
|---------------------------------------------------------------------
|-7---3-3-3-3-3-3-3-3-5-5-5-5-5-5-5-5-2-2-2-2-2-2-2-2-7-7-7-7-7-7-7-7-
|-7---3-3-3-3-3-3-3-3-5-5-5-5-5-5-5-5-2-2-2-2-2-2-2-2-7-7-7-7-7-7-7-7-
|-5---1-1-1-1-1-1-1-1-3-3-3-3-3-3-3-3-0-0-0-0-0-0-0-0-5-5-5-5-5-5-5-5-

 -------------------------------------------------|
 -------------------------------------------------|
 -------------------------------------------------|
 -3-3-3-3-3-3-3-3-5-5-5-5-5-5-5-5-2-2-2-2-2-2-2-2-|
 -3-3-3-3-3-3-3-3-5-5-5-5-5-5-5-5-2-2-2-2-2-2-2-2-|
 -1-1-1-1-1-1-1-1-3-3-3-3-3-3-3-3-0-0-0-0-0-0-0-0-|

|-----------------------------------------------------------------
|-----------------------------------------------------------------
|-----------------------------------------------------------------
|-7-7-7-7-7-7-7-7-3-3-3-3-3-3-3-3-5-5-5-5-5-5-5-5-2-2-2-2-2-2-2-2-
|-7-7-7-7-7-7-7-7-3-3-3-3-3-3-3-3-5-5-5-5-5-5-5-5-2-2-2-2-2-2-2-2-
|-5-5-5-5-5-5-5-5-1-1-1-1-1-1-1-1-3-3-3-3-3-3-3-3-0-0-0-0-0-0-0-0-

 ---------------------------------------------------------------|
 ---------------------------------------------------------------|
 ---------------------------------------------------------------|
 -7-7-7-7-7-7-7-7-3-3-3-3-3-3-3-3-5-5-5-5-5-5-5-5----2-2-2-2----|
 -7-7-7-7-7-7-7-7-3-3-3-3-3-3-3-3-5-5-5-5-5-5-5-5----2-2-2-2----|
 -5-5-5-5-5-5-5-5-1-1-1-1-1-1-1-1-3-3-3-3-3-3-3-3----0-0-0-0----|
 
chorus 

|-------------------------------------------------------------------------
|-------------------------------------------------------------------------
|-10-10-10-10-10-10-10-10-12-12-12-12-12-12-12-12-14-14-14-14-14-14-14-14-
|-10-10-10-10-10-10-10-10-12-12-12-12-12-12-12-12-14-14-14-14-14-14-14-14-
|--8--8--8--8--8--8--8--8-10-10-10-10-10-10-10-10-12-12-12-12-12-12-12-12-
|-------------------------------------------------------------------------

 -------------------------------------------------------------
 -------------------------------------------------------------
 -12-12-12-12-10-10-10-10-10-10-10-10-12-12-12-12-12-12-12-12-
 -12-12-12-12-10-10-10-10-10-10-10-10-12-12-12-12-12-12-12-12-
 -10-10-10-10--8--8--8--8--8--8--8--8-10-10-10-10-10-10-10-10-
 -------------------------------------------------------------

 ---------------------------------------------------|
 ---------------------------------------------------|
 -5-5-5-5-5-5-5-5-12-12-10-10-10-10-10-10-10-10--5--|
 -5-5-5-5-5-5-5-5-12-12-10-10-10-10-10-10-10-10--5--|
 -3-3-3-3-3-3-3-3-10-10--8--8--8--8--8--8--8--8--3--|
 ---------------------------------------------------|

post chorus - repeat a few times

|------------------------------------|
|------------------------------------|
|-/17-17-17-x-x-x-x-15-15-14-x-x-x-x-|
|-/17-17-17-x-x-x-x-15-15-14-x-x-x-x-|
|-/15-15-15-x-x-x-x-13-13-12-x-x-x-x-|
|------------------------------------|

chorus 2

pm________________________________________________________________
|-----------------------------------------------------------------
|-----------------------------------------------------------------
|---------------------------------5-5-5-5-5-5-5-5-5-5-5-5---------
|-3-3-3-3-3-3-3-3-5-5-5-5-5-5-5-5-5-5-5-5-5-5-5-5-5-5-5-5-5-5-5-5-
|-3-3-3-3-3-3-3-3-5-5-5-5-5-5-5-5-3-3-3-3-3-3-3-3-3-3-3-3-5-5-5-5-
|-1-1-1-1-1-1-1-1-3-3-3-3-3-3-3-3-------------------------3-3-3-3-

pm_______________________________|
 ----------------------------------------------------------------------|
 ----------------------------------------------------------------------|
 ----------------------------------5-5-5-5-5-5-5-5---------------------|
 -3-3-3-3-3-3-3-3-5-5-5-5-5-5-5-5--5-5-5-5-5-5-5-5-3-3-3-3-3-3-3--5:---|
 -3-3-3-3-3-3-3-3-5-5-5-5-5-5-5-5--3-3-3-3-3-3-3-3-3-3-3-3-3-3-3--5:---|
 -1-1-1-1-1-1-1-1-3-3-3-3-3-3-3-3------------------1-1-1-1-1-1-1--3:---|

lyrics

stop! have a beer, it's on me, has anyone ever told you
that you look like a star, heard it said at the bar
so I drink, 'cause it makes me, happier than being alone
my good friend, johnny walker, keeps me warm like a cunt
seems like everybody's got, something I have not
a reason not to die, death to mr. right
'cause that's not me! yeah, yeah, yeah, yeah, yeah! fuck!



NOFX albums
2003 War on Errorism
2000 Pump Up the Valuum
1997 So Long And Thanks For All The Shoes
1996 Heavy Petting Zoo
1995 I Heard They Suck Live!!
1994 Punk in Drublic
1993 The Longest Line
1993 White Trash, Two Heebs & A Bean
1991 Ribbed
1989 S & M Airlines
Heavy Petting Zoo tabs
01Hobophobic (Scared Of Bums) tabbass tab
02Philthy Phil Philanthropist tabbass tab
03Freedom Lika Shopping Cart tabbass tab
04Bleeding Heart Disease tabbass tab
05Hot Dog In A Hallway tabbass tab
06Release The Hostages tabbass tab
07Liza tabbass tab
08What's The Matter With Kids Today? tabbass tab
09Love Story tabbass tab
10Black And White, The tabbass tab
11Whatever Didi Wants tabbass tab
12August 8th tabbass tab
13Drop The World tabbass tab

 

1