Search tabs:
Browse artists: 0-9 | A | B | C | D | E | F | G | H | I | J | K | L | M | N | O | P | Q | R | S | T | U | V | W | X | Y | Z
/ NOFX / Heavy Petting Zoo (1996) / Whatever Didi Wants guitar tab


Date: Mon, November 10 1997
From: Peter Ferragine (iginition@yesic.com)
Group: NOFX 
Album: Heavy Petting Zoo
Released: 1996 epitaph records
Track: 11
Title: whatever didi wants

^ - bend
pm - palm mute
: - let ring


verse

guitar 1 - played a few times

pm____________________________________________|
|---------------------------------------------|
|---------------------------------------------|
|---------------------------------------------|
|-10-10-10-10--5-5-5-5----3-3-3-3--5-5-5-5----|
|-10-10-10-10--5-5-5-5----3-3-3-3--5-5-5-5----|
|--8--8--8--8--3-3-3-3----1-1-1-1--3-3-3-3----|

guitar 2 - played a few times

pm___________________|
|--------------------|
|--------------------|
|--------------------|
|-10-8-7-8-7---------|
|------------10-8-10-|
|--------------------|

post intro/verse riff - played a couple times
 
|-8^-8-8--8^--8-8--8^--8-8-8-8--|
|-------------------------------|
|-------------------------------|
|-------------------------------|
|-------------------------------|
|-------------------------------|

played behind riff

|-----------------------------------------------|
|-----------------------------------------------|
|-5---12---10---12----5---12---10---12--12--12--|
|-5---12---10---12----5---12---10---12--12--12--|
|-3---10----8---10----3---10----8---10--10--10--|
|-----------------------------------------------|

chorus

pm________________________________________________________________|
|-----------------------------------------------------------------|
|-----------------------------------------------------------------|
|-----------------------------------------------------------------|
|-7-7-7-7-7-7-7-7-5-5-5-5-5-5-5-5-5-5-5-5-5-5-5-5-3-3-3-3-3-3-3-3-|
|-7-7-7-7-7-7-7-7-5-5-5-5-5-5-5-5-5-5-5-5-5-5-5-5-3-3-3-3-3-3-3-3-|
|-5-5-5-5-5-5-5-5-3-3-3-3-3-3-3-3-3-3-3-3-3-3-3-3-1-1-1-1-1-1-1-1-|

"you are so beautiful,.."

|-----------------|-------------------------------------------------
|-----------------|-8-8-8-8-8-8-8-8-6-6-6-6-6-6-6-6-6-6-6-6-6-6-6-6-
|-----------------|-7-7-7-7-7-7-7-7-5-5-5-5-5-5-5-5-5-5-5-5-5-5-5-5-
|-10:----8:----3--|-------------------------------------------------
|-10:----8:----3--|-------------------------------------------------
|--8:----6:----1--|-------------------------------------------------

 -----------------|
 -8-8-8-8-8-8-8-8-|
 -7-7-7-7-7-7-7-7-|
 -----------------|
 -----------------|
 -----------------|

lyrics

i wouldn't walk 500 miles, when i could fly coach, but almost anything
i wouldn't swim across the nile, 'cause i could get a moebic disentary
'cause if there's anything you want i'll probably get it
just tell me what you need i'll try not to forget it
you need someone to blame i'll say i said it
'cause whatever did wants she's gonna get it
i wouldn't climb the highest mountain, could get a blister, 
but almost anything, i wouldn't thorw coins in a fountain, 
i might be needing to make a phone call
it doesn't seem like you're a million miles away, no
but maybe one or two, that doesn't mean i never loved you
me love you long time, when you're on top of me



NOFX albums
2003 War on Errorism
2000 Pump Up the Valuum
1997 So Long And Thanks For All The Shoes
1996 Heavy Petting Zoo
1995 I Heard They Suck Live!!
1994 Punk in Drublic
1993 The Longest Line
1993 White Trash, Two Heebs & A Bean
1991 Ribbed
1989 S & M Airlines
Heavy Petting Zoo tabs
01Hobophobic (Scared Of Bums) tabbass tab
02Philthy Phil Philanthropist tabbass tab
03Freedom Lika Shopping Cart tabbass tab
04Bleeding Heart Disease tabbass tab
05Hot Dog In A Hallway tabbass tab
06Release The Hostages tabbass tab
07Liza tabbass tab
08What's The Matter With Kids Today? tabbass tab
09Love Story tabbass tab
10Black And White, The tabbass tab
11Whatever Didi Wants tabbass tab
12August 8th tabbass tab
13Drop The World tabbass tab

 

1