Search tabs:
Browse artists: 0-9 | A | B | C | D | E | F | G | H | I | J | K | L | M | N | O | P | Q | R | S | T | U | V | W | X | Y | Z
/ NOFX / I Heard They Suck Live!! (1995) / Punk Guy guitar tab


Date: Fri, October 31 1997
From: Peter Ferragine (iginition@yesic.com)
Group: NOFX
Album: Punk In Drublic
Released: 1994 epitaph records
Track: 14
Title: punk guy

pm - palm mute
: - let ring


verse 

|-----------------------------------------------------------------|
|-----------------------------------------------------------------|
|-5-5-5-5-5-5-5-5-----------------7-7-7-7-7-7-7-7-4-4-4-4-4-4-4-4-|
|-5-5-5-5-5-5-5-5-5-5-5-5-5-5-5-5-7-7-7-7-7-7-7-7-4-4-4-4-4-4-4-4-|
|-3-3-3-3-3-3-3-3-5-5-5-5-5-5-5-5-5-5-5-5-5-5-5-5-2-2-2-2-2-2-2-2-|
|-----------------3-3-3-3-3-3-3-3---------------------------------|

play the above three times, then...

|-----------------------------------------------------------------|
|-----------------------------------------------------------------|
|-5-5-5-5-5-5-5-5-----------------7---7---7---7---4-4-4-4-4-4-4-4-|
|-5-5-5-5-5-5-5-5-5-5-5-5-5-5-5-5-7---7---7---7---4-4-4-4-4-4-4-4-|
|-3-3-3-3-3-3-3-3-5-5-5-5-5-5-5-5-5---5---5---5---2-2-2-2-2-2-2-2-|
|-----------------3-3-3-3-3-3-3-3---------------------------------|

next...

|-----------------------------------------------------------------|
|-----------------------------------------------------------------|
|-5-5-5-5-5-5-5-5-----------------7-7-7-7-x-x-x-x-7-7-7-7-x-x-x-x-|
|-5-5-5-5-5-5-5-5-5-5-5-5-5-5-5-5-7-7-7-7-x-x-x-x-7-7-7-7-x-x-x-x-|
|-3-3-3-3-3-3-3-3-5-5-5-5-5-5-5-5-5-5-5-5-x-x-x-x-5-5-5-5-x-x-x-x-|
|-----------------3-3-3-3-3-3-3-3---------------------------------|

and then...

|
|--------------------------------------------------------------------------
|-5-5-5-5-x-x-x-x-----------------6-6-6-6-6-6-6-6--5--5--5--5--------------
|-5-5-5-5-x-x-x-x-5-5-5-5-x-x-x-x-6-6-6-6-6-6-6-6--5--5--5--5--5--5--5--5--
|-3-3-3-3-x-x-x-x-5-5-5-5-x-x-x-x-4-4-4-4-4-4-4-4--3--3--3--3--5--5--5--5--
|-----------------3-3-3-3-x-x-x-x------------------------------3--3--3--3--

 -------------------------------------------------------------------------
 -------------------------------------------------------------------------
 -7-7-7-7-7-7-7-7-4-4-4-4-4-4-4-4-5-5-5-5-x-x-x-x-----------------7-7-7-7-
 -7-7-7-7-7-7-7-7-4-4-4-4-4-4-4-4-5-5-5-5-x-x-x-x-5-5-5-5-x-x-x-x-7-7-7-7-
 -5-5-5-5-5-5-5-5-2-2-2-2-2-2-2-2-3-3-3-3-x-x-x-x-5-5-5-5-x-x-x-x-5-5-5-5-
 -------------------------------------------------3-3-3-3-x-x-x-x---------

 -------------------------------------------------------------------------
 -------------------------------------------------------------------------
 -x-x-x-x-7-7-7-7-x-x-x-x-5-5-5-5-x-x-x-x-----------------6-6-6-6-6-6-6-6-
 -x-x-x-x-7-7-7-7-x-x-x-x-5-5-5-5-x-x-x-x-5-5-5-5-x-x-x-x-6-6-6-6-6-6-6-6-
 -x-x-x-x-5-5-5-5-x-x-x-x-3-3-3-3-x-x-x-x-5-5-5-5-x-x-x-x-4-4-4-4-4-4-4-4-
 -----------------------------------------3-3-3-3-x-x-x-x-----------------

pm_______________________________|
 -------------------------------------------------------------------
 -------------------------------------------------------------------
 -5-5-5-5-5-5-5-5-------------------5-5-5-5-5-5-5-5-----------------
 -5-5-5-5-5-5-5-5-5-5-5-5-5-5-5-5---5-5-5-5-5-5-5-5-5-5-5-5-5-5-5-5-
 -3-3-3-3-3-3-3-3-5-5-5-5-5-5-5-5---3-3-3-3-3-3-3-3-5-5-5-5-5-5-5-5-
 -----------------3-3-3-3-3-3-3-3-------------------3-3-3-3-3-3-3-3-

 --------------------------------------------------------------|
 --------------------------------------------------------------|
 -7-7-7-7-7-7-7-7-4-4-4-4-4-4-4-4-5-5-5-5-5-5-5-5-------7:-----|
 -7-7-7-7-7-7-7-7-4-4-4-4-4-4-4-4-5-5-5-5-5-5-5-5--5----7:-----|
 -5-5-5-5-5-5-5-5-2-2-2-2-2-2-2-2-3-3-3-3-3-3-3-3--5----5:-----|
 --------------------------------------------------3-----------|

lyrics

crazier than gg, more pc than ian, got colored teeth like johnny
exudes a vicous disposition, his hair sticks out like colins did he jumps
similar to springa yeah he points his middle finga
not just a singer in the band
voted biggest asshole and role model of the year
got a face like charles bronson, straight outta green bay wisconsin
not just a singer in the band, he'll puke on you, he'll fuck your mom
he'll smoke while huffing gas, he was the punkest motherfucker i ever did see
aw hell, he's even more punk than me!
he shoulda been on the cover, he shoulda been on the cover
he should've been on the cover of punk and disorderly, yeah!



NOFX albums
2003 War on Errorism
2000 Pump Up the Valuum
1997 So Long And Thanks For All The Shoes
1996 Heavy Petting Zoo
1995 I Heard They Suck Live!!
1994 Punk in Drublic
1993 The Longest Line
1993 White Trash, Two Heebs & A Bean
1991 Ribbed
1989 S & M Airlines
I Heard They Suck Live!! tabs
01Linoleum tabbass tab
02You're Bleeding tabbass tab
03Moron Brothers tabbass tab
04Punk Guy tabbass tab
05Bob tabbass tab
06Life O' Riley tabbass tab
07You Drink, You Drive, You Spill tabbass tab
08Nothing But A Nightmare (Sorta) tabbass tab
09East Bay tabbass tab
10Soul Doubt tabbass tab
11Kill All The White Man tabbass tab
12Beer Bong tabbass tab
13Six Pack Girls tabbass tab
14Together On The Sand tabbass tab
15Nowhere tabbass tab
16The Brews tabbass tab
17Buggley Eyes tabbass tab

 

1