Search tabs:
Browse artists: 0-9 | A | B | C | D | E | F | G | H | I | J | K | L | M | N | O | P | Q | R | S | T | U | V | W | X | Y | Z
/ NOFX / I Heard They Suck Live!! (1995) / Six Pack Girls guitar tab


Date: Sun, November 16 1997
From: Peter Ferragine (iginition@yesic.com)
Group: NOFX
Album: maximum rocknroll
Re-released: 1992 mystic records   Originally: 1985 mystic records
Track: 3 
Title: six pack girls

verse

|-------------------|
|-------------------|
|-9-9-12-12-7-11-11-|
|-9-9-12-12-7-11-11-|
|-7-7-10-10-5--9--9-|
|-------------------|

chorus

|-------------------------------------------------------------|
|-------------------------------------------------------------|
|-9-12-9-9-9-9--9-12-9-9-9-9--9-12-11-11-11-11--11-12-9-9-9-9-|
|-9-12-9-9-9-9--9-12-9-9-9-9--9-12-11-11-11-11--11-12-9-9-9-9-|
|-7-10-7-7-7-7--7-10-7-7-7-7--7-10--9--9--9--9---9-10-7-7-7-7-|
|-------------------------------------------------------------|

lyrics

six pack girls, six pack girls, six pack girls

(that's all I can make out, if you know the lyrics could you please send 
to me, thanx!)


NOFX albums
2003 War on Errorism
2000 Pump Up the Valuum
1997 So Long And Thanks For All The Shoes
1996 Heavy Petting Zoo
1995 I Heard They Suck Live!!
1994 Punk in Drublic
1993 The Longest Line
1993 White Trash, Two Heebs & A Bean
1991 Ribbed
1989 S & M Airlines
I Heard They Suck Live!! tabs
01Linoleum tabbass tab
02You're Bleeding tabbass tab
03Moron Brothers tabbass tab
04Punk Guy tabbass tab
05Bob tabbass tab
06Life O' Riley tabbass tab
07You Drink, You Drive, You Spill tabbass tab
08Nothing But A Nightmare (Sorta) tabbass tab
09East Bay tabbass tab
10Soul Doubt tabbass tab
11Kill All The White Man tabbass tab
12Beer Bong tabbass tab
13Six Pack Girls tabbass tab
14Together On The Sand tabbass tab
15Nowhere tabbass tab
16The Brews tabbass tab
17Buggley Eyes tabbass tab

 

1