Search tabs:
Browse artists: 0-9 | A | B | C | D | E | F | G | H | I | J | K | L | M | N | O | P | Q | R | S | T | U | V | W | X | Y | Z
/ NOFX / Pump Up the Valuum (2000) / Dinosaurs Will Die guitar tab

-------------------------------------------------------------------------------------
                                Dinosaurs Will Die - NOFX
-------------------------------------------------------------------------------------

Tabbed by Kobra

E-mail: kobra@punkhardcore.net

Note: Please check riffs for both guitars before assuming there is a mistake.

INTRO:

Guitar 1
e|---------------------------------------------------------------------------|
B|---------------------------------------------------------------------------|
G|-9---7---5-----------------------------------------------------------------|
D|-9-9-7-7-5--X3-------------------------------------------------------------|
A|-7-6-5-4-3-----------------------------------------------------------------|
E|---------------------------------------------------------------------------|

Guitar 2
e|---------------------------------------------------------------------------|
B|---------------------------------------------------------------------------|
G|-9---7-6-5-----------------------------------------------------------------|
D|-9-9-7-6-5--X3-------------------------------------------------------------|
A|-7-6-5-4-3-----------------------------------------------------------------|
E|---------------------------------------------------------------------------|


Verse 1:

Guitar 1
e|---------------------------------------------------------------------------|
B|---------------------------------------------------------------------------|
G|--------------9---7---5------------9---------------------------------------|
D|--------------9-9-7-7-5------------9-----5------------5--------------------|
A|--------------7-6-5-4-3------------7-5-7---7-5-7-7-5-7---7-5---------------|
E|---------------------------------------------------------------------------|

Guitar 2
e|---------------------------------------------------------------------------|
B|---------------------------------------------------------------------------|
G|--------7--9--9---7-6-5---------7--9---------------------------------------|
D|--2--5--7--9--9-9-7-6-5---2--5--7--9---------------------------------------|
A|--2--5--5--7--7-6-5-4-3---2--5--5--7--------------(pic slide)--------------|
E|--0--3--------------------0--3---------------------------------------------|


Verse 1 continued:

Guitar 1
e|---------------------------------------------------------------------------|
B|---------------------------------------------------------------------------|
G|--9-12--7--9-----------9-9-7------------9-12--7--5-------------------------|
D|--9-12--7--9-----5-----------9-8-7------9-12--7--5-------------------------|
A|--7-10--5--7-5-7---7-5-------------10---7-10--5--3-------------------------|
E|---------------------------------------------------------------------------|

Guitar 2
e|---------------------------------------------------------------------------|
B|---------------------------------------------------------------------------|
G|--------7--------------9----------------------7--5-------------------------|
D|--2--5--7--2-----------9----------------2--5--7--5-------------------------|
A|--2--5--5--2-----------7----------------2--5--5--3-------------------------|
E|--0--3-----0----------------------------0--3-------------------------------|


Chorus:

Guitar 1
e|---------------------------------------------------------------------------|
B|---------------------------------------------------------------------------|
G|--9-----9-7-5--9-----9-----------------------------------------------------|
D|--9--7--9-7-5--9--7--9-----5-------------5---------------------------------|
A|--7--7--7-5-3--7--7--7-5-7---7-5-7-7-5-7---7-5-----------------------------|
E|-----5------------5--------------------------------------------------------|

Guitar 2
e|---------------------------------------------------------------------------|
B|---------------------------------------------------------------------------|
G|-----2------5-----2--------------------------------------------------------|
D|--2--2--2---5--2--2--2-----------------------------------------------------|
A|--2--0--2---3--2--0--2---------------(pic slide)---------------------------|
E|--0-----0------0-----0-----------------------------------------------------|


Verse 2:

Guitar 1
e|---------------------------------------------------------------------------|
B|---------------------------------------------------------------------------|
G|--------------9---7---5------------9---------------------------------------|
D|--------------9-9-7-7-5------------9-----5------------5--------------------|
A|--------------7-6-5-4-3------------7-5-7---7-5-7-7-5-7---7-5---------------|
E|---------------------------------------------------------------------------|

Guitar 2
e|---------------------------------------------------------------------------|
B|---------------------------------------------------------------------------|
G|--------7--9--9---7-6-5---------7--9---------------------------------------|
D|--2--5--7--9--9-9-7-6-5---2--5--7--9---------------------------------------|
A|--2--5--5--7--7-6-5-4-3---2--5--5--7--------------(pic slide)--------------|
E|--0--3--------------------0--3---------------------------------------------|


Verse 2 continued:

Guitar 1
e|---------------------------------------------------------------------------|
B|---------------------------------------------------------------------------|
G|--9-12--7--9-----------9-9-7------------9--5-----7-------------------------|
D|--9-12--7--9-----5-----------9-8-7------9--5--5--7-------------------------|
A|--7-10--5--7-5-7---7-5-------------10---7--3--5--5-------------------------|
E|----------------------------------------------3----------------------------|

Guitar 2
e|---------------------------------------------------------------------------|
B|---------------------------------------------------------------------------|
G|--------7--------------9-------------------5-----7-------------------------|
D|--2--5--7--2-----------9----------------2--5--5--7-------------------------|
A|--2--5--5--2-----------7----------------2--3--5--5-------------------------|
E|--0--3-----0----------------------------0-----3----------------------------|


Chorus:

Guitar 1
e|---------------------------------------------------------------------------|
B|---------------------------------------------------------------------------|
G|--9-----9-7-5--9-----9-----------------------------------------------------|
D|--9--7--9-7-5--9--7--9-----------------------------------------------------|
A|--7--7--7-5-3--7--7--7-----------------------------------------------------|
E|-----5------------5--------------------------------------------------------|

Guitar 2
e|---------------------------------------------------------------------------|
B|---------------------------------------------------------------------------|
G|-----2------5-----2--------------------------------------------------------|
D|--2--2--2---5--2--2--2-----------------------------------------------------|
A|--2--0--2---3--2--0--2-----------------------------------------------------|
E|--0-----0------0-----0-----------------------------------------------------|


Solo:

Guitar 1
e|---------------------------------------------------------------------------|
B|--------------------------------------------------------------8-7---8-7----|
G|--9-9-7-7-9-9-7-7-9-9-7-7-9-9-7-9-9-7-7-9-9-7-7-9-9-7-7-9-9-7-----9-----9--|
D|---------------------------------------------------------------------------|
A|---------------------------------------------------------------------------|
E|---------------------------------------------------------------------------|

Guitar 2
e|---------------------------------------------------------------------------|
B|---------------------------------------------------------------------------|
G|--------------------------------5------------------------------------------|
D|--2-----------------------------5-----------------------------5------------|
A|--2-----------------------------3-----------------------------5------------|
E|--0-----------------------------------------------------------3------------|


Solo continued:

Guitar 1
e|---------------------------------------------------------------------------|
B|--------------------12-10-12-10-12-12-10-10-12-10-17-15-17-15-17-17-12-10--|
G|-9-4-5-4-5-4-2-0-5-4------------------------------------------------------9|
D|---------------------------------------------------------------------------|
A|---------------------------------------------------------------------------|
E|---------------------------------------------------------------------------|

Guitar 2
e|---------------------------------------------------------------------------|
B|---------------------------------------------------------------------------|
G|-------------5-------2-----------------------------5-----------------------|
D|-2-----------5-----5-2-----------------------------5-----------------------|
A|-2-----------3-----5-0-----------------------------3-----------------------|
E|-0-----------------3-------------------------------------------------------|


Verse 3:

Guitar 1
e|---------------------------------------------------------------------------|
B|---------------------------------------------------------------------------|
G|--------------9--------------------9---------------------------------------|
D|--------------9-9-7-7--------------9-----5-------------5-------------------|
A|--------------7-6-7-7-7------------7-5-7---7-5-7-7-5-7---7-5---------------|
E|------------------5-5-4----------------------------------------------------|

Guitar 2
e|---------------------------------------------------------------------------|
B|---------------------------------------------------------------------------|
G|--------7--9--9-----------------7--9---------------------------------------|
D|--2--5--7--9--9-9-7-7-2---2--5--7--9---------------------------------------|
A|--2--5--5--7--7-6-7-7-2---2--5--5--7--------------(pic slide)--------------|
E|--0--3------------5-5-0---0--3---------------------------------------------|


Verse 3 continued:

Guitar 1
e|---------------------------------------------------------------------------|
B|---------------------------------------------------------------------------|
G|--9-12--7--9----------------------------9-12--7----------------------------|
D|--9-12--7--9-----5-------------5--------9-12--7----------------------------|
A|--7-10--5--7-5-7---7-5-7-7-5-7---7-5----7-10--5----------------------------|
E|---------------------------------------------------------------------------|

Guitar 2
e|---------------------------------------------------------------------------|
B|---------------------------------------------------------------------------|
G|--------7--------------9----------------------7----------------------------|
D|--2--5--7--2-----------9----------------2--5--7----------------------------|
A|--2--5--5--2-----------7----------------2--5--5----------------------------|
E|--0--3-----0----------------------------0--3-------------------------------|


Bridge

Guitar 1
e|---------------------------------------------------------------------------|x2
B|--------4------------------------------------------------------------------|
G|--9--5--5---12-12-12-12-12-12-12-12-12-12----------------------------------|
D|--9--5--5---12-10-10-12-12-10-12-10-10-12----------------------------------|
A|--7--3--3---10-10-10-10-10-10-10-10-10-10----------------------------------|
E|---------------------------------------------------------------------------|

Guitar 2
e|---------------------------------------------------------------------------|x2
B|--------4------------------------------------------------------------------|
G|-----5--5------------------------------------------------------------------|
D|--2--5--5----5--5--5--5--5--5--5--5--5--5----------------------------------|
A|--2--3--3----5--3--3--5--5--3--5--3--3--5----------------------------------|
E|--0----------3--3--3--3--3--3--3--3--3--3----------------------------------|


Bridge continued + Ending

Guitar 1
e|-------*3------------------------------------------------------------------|
B|--------4------------------------------------------------------------------|
G|--9--5--5---12------------------------------------10-12--------------------|
D|--9--5--5---12------------------------------------10-12--------------------|
A|--7--3--3---10---------(bass fill)-----------------8-10--------------------|
E|---------------------------------------------------------------------------|

Guitar 2
e|-------*3------------------------------------------------------------------|
B|--------4------------------------------------------------------------------|
G|-----5--5------------------------------------------------------------------|
D|--2--5--5----5-------------------------------------3--5--------------------|
A|--2--3--3----5---------(bass fill)-----------------3--5--------------------|
E|--0----------3-------------------------------------1--3--------------------|

*At the time that this was tabbed, my guitar was missing the "e" string, so it was
hard for me to tell if that note sounded right with the "3". But this number can
be added if wanted, although the note sounds good without it anyway.

The end of the solo is probably wrong, but the beginning is right I'm sure of it.

Also e-mail me for corrections if you have any. Thanks.

Update : I just updated this. Found a few mistakes.


NOFX albums
2003 War on Errorism
2000 Pump Up the Valuum
1997 So Long And Thanks For All The Shoes
1996 Heavy Petting Zoo
1995 I Heard They Suck Live!!
1994 Punk in Drublic
1993 The Longest Line
1993 White Trash, Two Heebs & A Bean
1991 Ribbed
1989 S & M Airlines
Pump Up the Valuum tabs
01And Now for Something Completely Similar tabbass tab
03What's the Matter With Parents Today? tabbass tab
04Dinosaurs Will Die tabbass tab
05Thank God It's Monday tabbass tab
06Clams Have Feelings Too tabbass tab
07Louise tabbass tab
08Stranger Than Fishin' tabbass tab
09Pharmacist's Daughter tabbass tab
10Bottles to the Ground tabbass tab
11Total Bummer tabbass tab
12My Vagina tabbass tab
13Herojuana tabbass tab
14Theme from a Nofx Album tabbass tab

 

1