Search tabs:
Browse artists: 0-9 | A | B | C | D | E | F | G | H | I | J | K | L | M | N | O | P | Q | R | S | T | U | V | W | X | Y | Z
/ NOFX / Pump Up the Valuum (2000) / Stranger Than Fishin' guitar tab

-------------------------------------------------------------------------------
                NOFX – Stranger than Fishin
-------------------------------------------------------------------------------

Verse x 7
e|---------------------------------------------------------------------------|
B|---------------------------------------------------------------------------|
G|---------------------------------------------------------------------------|
D|-7-7-----------------------------------------------------------------------|
A|-5-5--2-2--9-9--9-9--------------------------------------------------------|
E|------0-0--7-7--7-7--------------------------------------------------------|

Chorus x 1
e|---------------------------------------------------------------------------|
B|---------------------------------------------------------------------------|
G|---------------------------------------------------------------------------|
D|-7-7-7-7-------------------------------------------------------------------|
A|-5-5-5-5--7-7-7-7--5-5-5-5--5-5-5-5----------------------------------------|
E|----------5-5-5-5--3-3-3-3--3-3-3-3----------------------------------------|

Verse x 1

Fill 1 x 1
e|---------------------------------------------------------------------------|
B|---------------------------------------------------------------------------|
G|-11--9--7------------------------------------------------------------------|
D|---------------------------------------------------------------------------|
A|--9--7--5------------------------------------------------------------------|
E|---------------------------------------------------------------------------|

Verse x 3

Chorus x 1

Fill 2 x 2
e|---------------------------------------------------------------------------|
B|---------------------------------------------------------------------------|
G|-11-11--9-9--7-7--7-7------------------------------------------------------|
D|---------------------------------------------------------------------------|
A|--9--9--7-7--5-5--5-5------------------------------------------------------|
E|---------------------------------------------------------------------------|

Bridge x 1
e|---------------------------------------------------------------------------|
B|---------------------------------------------------------------------------|
G|---------------------------------------------------------------------------|
D|-12-12-12-12-12-12-12-12-7-7-7-7-7-7-7-7/9-9-9-9-9-9-9-9-9-5-5-5-5-5-5-5-5-|
A|-10-10-10-10-10-10-10-10-5-5-5-5-5-5-5-5/7-7-7-7-7-7-7-7-7-3-3-3-3-3-3-3-3-|
E|---------------------------------------------------------------------------|

Fill (till the end)


NOFX albums
2003 War on Errorism
2000 Pump Up the Valuum
1997 So Long And Thanks For All The Shoes
1996 Heavy Petting Zoo
1995 I Heard They Suck Live!!
1994 Punk in Drublic
1993 The Longest Line
1993 White Trash, Two Heebs & A Bean
1991 Ribbed
1989 S & M Airlines
Pump Up the Valuum tabs
01And Now for Something Completely Similar tabbass tab
03What's the Matter With Parents Today? tabbass tab
04Dinosaurs Will Die tabbass tab
05Thank God It's Monday tabbass tab
06Clams Have Feelings Too tabbass tab
07Louise tabbass tab
08Stranger Than Fishin' tabbass tab
09Pharmacist's Daughter tabbass tab
10Bottles to the Ground tabbass tab
11Total Bummer tabbass tab
12My Vagina tabbass tab
13Herojuana tabbass tab
14Theme from a Nofx Album tabbass tab

 

1