Search tabs:
Browse artists: 0-9 | A | B | C | D | E | F | G | H | I | J | K | L | M | N | O | P | Q | R | S | T | U | V | W | X | Y | Z
/ NOFX / Punk in Drublic (1994) / Dig guitar tab


Date: Sat, October 25 1997
From: Peter Ferragine (iginition@yesic.com)
Group: NOFX
Album: Punk In Drublic
Released: 1994 epitaph records
Track: 3
Title: dig

x - scratch
h - hammer on
p - pull off


intro

|-------------------------------------------------------------------------|
|-------------------------------------------------------------------------|
|-17-17-17-17-17-17-17-17-16-16-16-16-18-18-18-18-18-18-19-19-19-19-19-19-|
|-17-17-17-17-17-17-17-17-16-16-16-16-18-18-18-18-18-18-19-19-19-19-19-19-|
|-15-15-15-15-15-15-15-15-14-14-14-14-16-16-16-16-16-16-17-17-17-17-17-17-|
|-------------------------------------------------------------------------|

then guitar 2 comes in later with...

|---------------------------------------------|
|---------------------------------------------|
|-2-2-2-2-2--5-5-5-5-5--3-3-3-3-3--5-5-5-5-5--|
|-2-2-2-2-2--5-5-5-5-5--3-3-3-3-3--5-5-5-5-5--|
|-0-0-0-0-0--3-3-3-3-3--1-1-1-1-1--3-3-3-3-3--|
|---------------------------------------------|

verse

|-----------------------------------------------------------------------|
|-----------------------------------------------------------------------|
|--------------------------------------------------10-10-10-10-10-10-10-|
|-7-7-7-7-7-7-7-10-10-10-10-10-10-10-5-5-5-5-5-5-5-10-10-10-10-10-10-10-|
|-7-7-7-7-7-7-7-10-10-10-10-10-10-10-5-5-5-5-5-5-5--8--8--8--8--8--8--8-|
|-5-5-5-5-5-5-5--8--8--8--8--8--8--8-3-3-3-3-3-3-3----------------------|

post verse

|--------------------------------------------------------------
|--------------------------------------------------------------
|-10-9-7-5-5-5-5-5-5--------------------------10-10------------
|-10-9-7-5-5-5-5-5-5------------3-3-3-3-3-3---10-10------------
|--8-7-5-3-3-3-3-3-3-0h2h3p2p0--3-3-3-3-3-3----8--8-0h2h3p2p0--
|-------------------------------1-1-1-1-1-1--------------------

 ---------------------------------------------------------------|
 ---------------------------------------------------------------|
 -5-5-5-5-5-5--12-12------------7-7-7-7-7-7-7-7-5-5-5-5-5-5-5-5-|
 -5-5-5-5-5-5--12-12------------7-7-7-7-7-7-7-7-5-5-5-5-5-5-5-5-|
 -3-3-3-3-3-3--10-10-0h2h3p2p0--5-5-5-5-5-5-5-5-3-3-3-3-3-3-3-3-|
 ---------------------------------------------------------------|

verse 2

|-------------------------------------------------------------
|-------------------------------------------------------------
|-5-5-5-5---------2-2-2-2-12-12-12-12---------5-5-5-5---------
|-5-5-5-5-5-5-5-5-2-2-2-2-12-12-12-12-3-3-3-3-5-5-5-5-5-5-5-5-
|-3-3-3-3-5-5-5-5-0-0-0-0-10-10-10-10-3-3-3-3-3-3-3-3-5-5-5-5-
|---------3-3-3-3---------------------1-1-1-1---------3-3-3-3-

 ---------------------|
 ---------------------|
 -10-10-10-10--10-9-7-|
 -10-10-10-10--10-9-7-|
 --8--8--8--8---8-7-5-|
 ---------------------|

post verse 2 

|-------------------------------------------------------------------------|
|-------------------------------------------------------------------------|
|-2-2-2-2-2-2-5-5-5-5-5-5-------------------------------------------------|
|-2-2-2-2-2-2-5-5-5-5-5-5-5-5-5-5-5-5-2-2-2-2-2-2-2-2-2-2-2-2-2-2-2-2-2-2-|
|-0-0-0-0-0-0-3-3-3-3-3-3-5-5-5-5-5-5-2-2-2-2-2-2-2-2-2-2-2-2-2-2-2-2-2-2-|
|-------------------------3-3-3-3-3-3-0-0-0-0-0-0-0-0-0-0-0-0-0-0-0-0-0-0-|

bridge

|-1-1---3-3---5-5---5-5---1-1---1-1---3-3----------------|
|-1-1---3-3---5-5---5-5---1-1---1-1---3-3----------------|
|-------------------------------------------x-x-5-x-x-5--|
|-------------------------------------------x-x-5-x-x-5--|
|-------------------------------------------x-x-3-x-x-3--|
|--------------------------------------------------------|

lyrics

rationalize values it's so easy to succeed, 
keeping your eyes on the prize excess
camped outside laissez faire, people understand me there
don't talk to me we'll get along just fine
blowing out your mores, henry ford tradition plays on
idle minds left the emergency break on too long
underneath the city lies ruins of mankind
the excavation was a financial success with artifacts of gold
the arrowheads went straight into the smithsonian
the rest was melted down and sold
substantial gains, minimal losses are tolerable
as long as the machine keeps running fine
cannibals, functioning on pheromones
rational thought lost to instinctual



NOFX albums
2003 War on Errorism
2000 Pump Up the Valuum
1997 So Long And Thanks For All The Shoes
1996 Heavy Petting Zoo
1995 I Heard They Suck Live!!
1994 Punk in Drublic
1993 The Longest Line
1993 White Trash, Two Heebs & A Bean
1991 Ribbed
1989 S & M Airlines
Punk in Drublic tabs
01Linolem tabbass tab
02Leave It Alone tabbass tab
03Dig tabbass tab
04The Cause tabbass tab
05Don't Call Me White tabbass tab
06My Heart Is Yearning tabbass tab
07A Perfect Government tabbass tab
08The Brews tabbass tab
09The Quass tabbass tab
10Dying Degree tabbass tab
11Fleas tabbass tab
12Lori Meyers tabbass tab
13Jeff Wears Birkenstocks? tabbass tab
14Punk Guy ('Cause He Does Punk Things) tabbass tab
15The Happy Guy tabbass tab
16Reeko tabbass tab
17Scavenger Type tabbass tab

 

1