Search tabs:
Browse artists: 0-9 | A | B | C | D | E | F | G | H | I | J | K | L | M | N | O | P | Q | R | S | T | U | V | W | X | Y | Z
/ NOFX / Punk in Drublic (1994) / Dying Degree guitar tab


Date: Thurs, October 30 1997 
From: Peter Ferragine (iginition@yesic.com)
Group: NOFX
Album: Punk In Drublic
Released: 1994 epitaph records
Track: 10
Title: dying degree

x - scratch


verse

guitar 1 - play the first part 3 times then the last part

|-------------------------------------|---------------------------------|
|-------------------------------------|---------------------------------|
|-------------x-x-5-5-5-5-x-x-7-7-7-7-|---------7-7-7-7-5-5-5-5-5-5-5-5-|
|-x-x-2-2-2-2-x-x-5-5-5-5-x-x-7-7-7-7-|-5-5-5-5-7-7-7-7-5-5-5-5-5-5-5-5-|
|-x-x-2-2-2-2-x-x-3-3-3-3-x-x-5-5-5-5-|-5-5-5-5-5-5-5-5-3-3-3-3-3-3-3-3-|
|-x-x-0-0-0-0-------------------------|-3-3-3-3-------------------------|

guitar 2 - play the first part 3 times then the last part

|-----------------------------------------|---------------------------------|
|-----------------------------------------|---------------------------------|
|-12-12-12-12-14-14-12-12-5-5-5-5-7-7-7-7-|---------7-7-7-7-5-5-5-5-5-5-5-5-|
|-12-12-12-12-14-14-12-12-5-5-5-5-7-7-7-7-|-5-5-5-5-7-7-7-7-5-5-5-5-5-5-5-5-|
|-10-10-10-10-12-12-10-10-3-3-3-3-5-5-5-5-|-5-5-5-5-5-5-5-5-3-3-3-3-3-3-3-3-|
|-----------------------------------------|-3-3-3-3-------------------------|

chorus

|-----------------------------------------------------------------|
|-----------------------------------------------------------------|
|---------------------------------5-5-5-5-5-5-5-5-7-7-7-7-7-7-7-7-|
|-5-5-5-5-5-5-5-5-2-2-2-2-2-2-2-2-5-5-5-5-5-5-5-5-7-7-7-7-7-7-7-7-|
|-5-5-5-5-5-5-5-5-2-2-2-2-2-2-2-2-3-3-3-3-3-3-3-3-5-5-5-5-5-5-5-5-|
|-3-3-3-3-3-3-3-3-0-0-0-0-0-0-0-0---------------------------------|

riff played during chorus

|-----------------------|
|-----------------------|
|-12-12-12-11-11-11-9-9-|
|-12-12-12-11-11-11-9-9-|
|-10-10-10--9--9--9-7-7-|
|-----------------------|

post solo

|-----------------------------------------------------------------|
|-----------------------------------------------------------------|
|-5-5-5-5-5-5-5-5---------------------------------5-5-5-5-5-5-5-5-|
|-5-5-5-5-5-5-5-5-5-5-5-5-5-5-5-5-7-7-7-7-7-7-7-7-5-5-5-5-5-5-5-5-|
|-3-3-3-3-3-3-3-3-5-5-5-5-5-5-5-5-7-7-7-7-7-7-7-7-3-3-3-3-3-3-3-3-|
|-----------------3-3-3-3-3-3-3-3-5-5-5-5-5-5-5-5-----------------|

lyrics

dresser drawers are filled with pocket change
coupons cut, cigarettes smoked down to the butt
is this what dreams are made of?
adding up, subtracting down you find yourself sucking the rind
dying degree, graying amie
final payment made, had you forgot? 
the rightful owner of one delux cemetary plot
paisley satin lined how apprapoe, what a better way to go
dying degree, graying amie
no more eating crumbs, when my pension finally comes
you kids won't eat mush anymore 'round me
dying degree, graying amie



NOFX albums
2003 War on Errorism
2000 Pump Up the Valuum
1997 So Long And Thanks For All The Shoes
1996 Heavy Petting Zoo
1995 I Heard They Suck Live!!
1994 Punk in Drublic
1993 The Longest Line
1993 White Trash, Two Heebs & A Bean
1991 Ribbed
1989 S & M Airlines
Punk in Drublic tabs
01Linolem tabbass tab
02Leave It Alone tabbass tab
03Dig tabbass tab
04The Cause tabbass tab
05Don't Call Me White tabbass tab
06My Heart Is Yearning tabbass tab
07A Perfect Government tabbass tab
08The Brews tabbass tab
09The Quass tabbass tab
10Dying Degree tabbass tab
11Fleas tabbass tab
12Lori Meyers tabbass tab
13Jeff Wears Birkenstocks? tabbass tab
14Punk Guy ('Cause He Does Punk Things) tabbass tab
15The Happy Guy tabbass tab
16Reeko tabbass tab
17Scavenger Type tabbass tab

 

1