Search tabs:
Browse artists: 0-9 | A | B | C | D | E | F | G | H | I | J | K | L | M | N | O | P | Q | R | S | T | U | V | W | X | Y | Z
/ NOFX / Punk in Drublic (1994) / Fleas guitar tab


Date: Fri, October 31 1997
From: Peter Ferragine (iginition@yesic.com)
Group: NOFX
Album: Punk In Drublic
Released: 1994 epitaph records
Track: 11
Title: fleas

: - let ring


intro

guitar 1 - no distortion

|-----------------------------------------------------------------|
|-----------------------------------------------------------------|
|---------------------------------5-5-5-5-5-5-5-5-5-5-5-5-5-5-5-5-|
|-5-5-5-5-5-5-5-5-3-3-3-3-3-3-3-3-5-5-5-5-5-5-5-5-5-5-5-5-5-5-5-5-|
|-5-5-5-5-5-5-5-5-3-3-3-3-3-3-3-3-3-3-3-3-3-3-3-3-3-3-3-3-3-3-3-3-|
|-3-3-3-3-3-3-3-3-1-1-1-1-1-1-1-1---------------------------------|

guitar 2

|-------------------------------------------------------------|
|-------------------------------------------------------------|
|-5---------3---------5---------3---------5--------------3----|
|-5----5----3----3----5----5----3----3----5----5----3----3----|
|-3----5----1----3----3----5----1----3----3----5----3----1----|
|------3---------1---------3---------1---------3----1---------|
  
verse - repeat the first part 3 times then finish with the second part

|-----------------------------------------------------------------|
|-----------------------------------------------------------------|
|-5-5-5-5-5-5-5-5-----------------3-3-3-3-3-3-3-3-----------------|
|-5-5-5-5-5-5-5-5-5-5-5-5-5-5-5-5-3-3-3-3-3-3-3-3-3-3-3-3-3-3-3-3-|
|-3-3-3-3-3-3-3-3-5-5-5-5-5-5-5-5-1-1-1-1-1-1-1-1-3-3-3-3-3-3-3-3-|
|-----------------3-3-3-3-3-3-3-3-----------------1-1-1-1-1-1-1-1-|

|---------------------------------------|
|---------------------------------------|
|-5-5-5-5-5-5-5-5-----------------------|
|-5-5-5-5-5-5-5-5-5-5-5-5-5-5-5-5-3:----|
|-3-3-3-3-3-3-3-3-5-5-5-5-5-5-5-5-3:----|
|-----------------3-3-3-3-3-3-3-3-1:----|

"so don't stop what i've begun...." - play this twice

|-----------------------------------------------------------------------
|-----------------------------------------------------------------------
|-----------------5-5-5-5-5-5-5-5-3--5------------------3-3-3-3-3-3-3-3-
|-5-5-5-5-5-5-5-5-5-5-5-5-5-5-5-5-3--5--3-3-3-3-3-3-3-3-3-3-3-3-3-3-3-3-
|-5-5-5-5-5-5-5-5-3-3-3-3-3-3-3-3-1--3--3-3-3-3-3-3-3-3-1-1-1-1-1-1-1-1-
|-3-3-3-3-3-3-3-3-----------------------1-1-1-1-1-1-1-1-----------------

 ---------------------------------|
 ---------------------------------|
 -5-5-5-5-5-5-5-5-----------------|
 -5-5-5-5-5-5-5-5-5-5-5-5-5-5-5-5-|
 -3-3-3-3-3-3-3-3-5-5-5-5-5-5-5-5-|
 -----------------3-3-3-3-3-3-3-3-|

lyrics

father used to say you'll sleep with dogs next day
you'll wake in the bed scratching with inevitable fleas 
at ten years old you listen to what you're told 
but i never felt the itch, i never would 
mother had forbidden me to waste away my life 
i want you to have all the things i could never buy you
so don't stop what i've begun you're my one my only son
follow what i say not what i've done
shower, scrub, and shave cleanly boys don't misbehave
follow what i say not what i've done



NOFX albums
2003 War on Errorism
2000 Pump Up the Valuum
1997 So Long And Thanks For All The Shoes
1996 Heavy Petting Zoo
1995 I Heard They Suck Live!!
1994 Punk in Drublic
1993 The Longest Line
1993 White Trash, Two Heebs & A Bean
1991 Ribbed
1989 S & M Airlines
Punk in Drublic tabs
01Linolem tabbass tab
02Leave It Alone tabbass tab
03Dig tabbass tab
04The Cause tabbass tab
05Don't Call Me White tabbass tab
06My Heart Is Yearning tabbass tab
07A Perfect Government tabbass tab
08The Brews tabbass tab
09The Quass tabbass tab
10Dying Degree tabbass tab
11Fleas tabbass tab
12Lori Meyers tabbass tab
13Jeff Wears Birkenstocks? tabbass tab
14Punk Guy ('Cause He Does Punk Things) tabbass tab
15The Happy Guy tabbass tab
16Reeko tabbass tab
17Scavenger Type tabbass tab

 

1