Search tabs:
Browse artists: 0-9 | A | B | C | D | E | F | G | H | I | J | K | L | M | N | O | P | Q | R | S | T | U | V | W | X | Y | Z
/ NOFX / Punk in Drublic (1994) / Jeff Wears Birkenstocks? guitar tab


Date: Fri, October 31 1997
From: Peter Ferragine (iginition@yesic.com)
Group: NOFX
Album: Punk In Drublic
Released: 1994 epitaph records
Track: 13
Title: jeff wears birkenstocks

x - scratch
: - let ring


intro

|-----------------------------------------------------------------|
|-----------------------------------------------------------------|
|-7-7-7-7-x-x-x-x-7-7-7-7-x-x-x-x-7-7-7-7-x-x-x-x-7-7-7-7-x-x-x-x-|
|-7-7-7-7-x-x-x-x-7-7-7-7-x-x-x-x-7-7-7-7-x-x-x-x-7-7-7-7-x-x-x-x-|
|-5-5-5-5-x-x-x-x-5-5-5-5-x-x-x-x-5-5-5-5-x-x-x-x-5-5-5-5-x-x-x-x-|
|-----------------------------------------------------------------|

verse

|---------------------------------------------------------------------|
|---------------------------------------------------------------------|
|-7-x-x-x-x--------------------------------7-x-x-x-x------------------|
|-7-x-x-x-x-5-x-x-x-x-7-x-x-x-x-5-x-x-x-x--7-x-x-x-x-5-x-x-x-x-7:-----|
|-5-x-x-x-x-5-x-x-x-x-7-x-x-x-x-5-x-x-x-x--5-x-x-x-x-5-x-x-x-x-7:-----|
|-----------3-x-x-x-x-5-x-x-x-x-3-x-x-x-x------------3-x-x-x-x-5:-----|

chorus

|---------------------------------------------------------------------|
|---------------------------------------------------------------------|
|-7-7-7-7-7-----------7-7-7-7-7-----------7-7-7-7-7-------------------|
|-7-7-7-7-7-5-5-5-5-5-7-7-7-7-7-5-5-5-5-5-7-7-7-7-7-7-7-7-7-7-5:------|
|-5-5-5-5-5-5-5-5-5-5-5-5-5-5-5-5-5-5-5-5-5-5-5-5-5-7-7-7-7-7-5:------|
|-----------3-3-3-3-3-----------3-3-3-3-3-----------5-5-5-5-5-3:------|

lyrics

don't wanna chill, don't wanna sit, don't wanna hear no hippy shit
don't tell me i've closed my mind
don't wanna groove, don't wanna dig, don't wanna spend the day naked
don't like my music country fried
he's got a tye dyed rancid shirt, he wears his birkenstocks to work
is he a jerk? no! just confused, jeff don't wear regular shoes
fat mike i gotta let you know, it's not the tunes it's their live show
and all the people you get to meet
plenty of good vibes and decent drugs, stinky people give you hugs
walk around in your bare feet
he's got a tye dyed rancid shirt, he wears his birkenstocks to work
is he a jerk? no! just confused, jeff don't wear regular shoes



NOFX albums
2003 War on Errorism
2000 Pump Up the Valuum
1997 So Long And Thanks For All The Shoes
1996 Heavy Petting Zoo
1995 I Heard They Suck Live!!
1994 Punk in Drublic
1993 The Longest Line
1993 White Trash, Two Heebs & A Bean
1991 Ribbed
1989 S & M Airlines
Punk in Drublic tabs
01Linolem tabbass tab
02Leave It Alone tabbass tab
03Dig tabbass tab
04The Cause tabbass tab
05Don't Call Me White tabbass tab
06My Heart Is Yearning tabbass tab
07A Perfect Government tabbass tab
08The Brews tabbass tab
09The Quass tabbass tab
10Dying Degree tabbass tab
11Fleas tabbass tab
12Lori Meyers tabbass tab
13Jeff Wears Birkenstocks? tabbass tab
14Punk Guy ('Cause He Does Punk Things) tabbass tab
15The Happy Guy tabbass tab
16Reeko tabbass tab
17Scavenger Type tabbass tab

 

1