Search tabs:
Browse artists: 0-9 | A | B | C | D | E | F | G | H | I | J | K | L | M | N | O | P | Q | R | S | T | U | V | W | X | Y | Z
/ NOFX / Punk in Drublic (1994) / Lori Meyers guitar tab


Date: Fri, October 31 1997
From: Peter Ferragine (iginition@yesic.com)
Group: NOFX
Album: Punk In Drublic
Released: 1994 epitaph records
Track: 12
Title: lori meyers


intro

guitar 1

|----------------------------------------------------------------------
|----------------------------------------------------------------------
|-7-7-7-7-9-9-9-9-11-11-11-11-11-11--7-7-7-7-9-9-9-9-11-11-11-11-11-11-
|-7-7-7-7-9-9-9-9-11-11-11-11-11-11--7-7-7-7-9-9-9-9-11-11-11-11-11-11-
|-5-5-5-5-7-7-7-7--9--9--9--9--9--9--5-5-5-5-7-7-7-7--9--9--9--9--9--9-
|----------------------------------------------------------------------

 ----------------------------------------------------------------|
 ----------------------------------------------------------------|
 -6-6-6-6-7-7-7-7-9-9-9-9-9-9--6-6-6-6-7-7-7-7-16-16-16-16-16-16-|
 -6-6-6-6-7-7-7-7-9-9-9-9-9-9--6-6-6-6-7-7-7-7-16-16-16-16-16-16-|
 -4-4-4-4-5-5-5-5-7-7-7-7-7-7--4-4-4-4-5-5-5-5-14-14-14-14-14-14-|
 ----------------------------------------------------------------|

guitar 2

|-----------------------------------------------------------------|
|-----------------------------------------------------------------|
|-----------------------------------------------------------------|
|-9-9-9-9-9-9-9-9-7-7-7-7-7-7-7-7-5-5-5-5-5-5-5-5-4-4-4-4-4-4-4-4-|
|-9-9-9-9-9-9-9-9-7-7-7-7-7-7-7-7-5-5-5-5-5-5-5-5-4-4-4-4-4-4-4-4-|
|-7-7-7-7-7-7-7-7-5-5-5-5-5-5-5-5-3-3-3-3-3-3-3-3-2-2-2-2-2-2-2-2-|

verse - played for the rest of the song except for outro which is played same
        as intro. When the girl sings, just add palm muting.

|---------------------------------------------------------------------------|
|---------------------------------------------------------------------------|
|-----------------------------------------------------7-7-7-7-7-7-7-7-11-11-|
|-9-9-9-9-9-9-9-9-7-5-5-5-5-5-5-5-5-4-7-7-7-7-7-7-7-7-7-7-7-7-7-7-7-7-11-11-|
|-9-9-9-9-9-9-9-9-7-5-5-5-5-5-5-5-5-4-7-7-7-7-7-7-7-7-5-5-5-5-5-5-5-5--9--9-|
|-7-7-7-7-7-7-7-7-5-3-3-3-3-3-3-3-3-2-5-5-5-5-5-5-5-5-----------------------|

lyrics

lori meyers used to live upstairs, our parents had been friends for years
almost every afternoon we'd play forbidden games
at nine years old there's no such thing as shame
it wasn't recognition of her face, what brought me back was a familiar mark
as it flashed across the screen, i bought some magazines
some video taped scenes incriminating act i felt that i could save her
who are you to tell me how to live my life? you think i sell my body
i merely sell my time, i ain't no cinderella, i ain't waiting for no prince
to save me in fact until just now i was doin' just fine and on and on
i know what degradation feels like, i felt it on the floor at the factory
where i worked long before, i took control, now i answer to me
the 50k i make this year will go anywhere i please, where's the problem?



NOFX albums
2003 War on Errorism
2000 Pump Up the Valuum
1997 So Long And Thanks For All The Shoes
1996 Heavy Petting Zoo
1995 I Heard They Suck Live!!
1994 Punk in Drublic
1993 The Longest Line
1993 White Trash, Two Heebs & A Bean
1991 Ribbed
1989 S & M Airlines
Punk in Drublic tabs
01Linolem tabbass tab
02Leave It Alone tabbass tab
03Dig tabbass tab
04The Cause tabbass tab
05Don't Call Me White tabbass tab
06My Heart Is Yearning tabbass tab
07A Perfect Government tabbass tab
08The Brews tabbass tab
09The Quass tabbass tab
10Dying Degree tabbass tab
11Fleas tabbass tab
12Lori Meyers tabbass tab
13Jeff Wears Birkenstocks? tabbass tab
14Punk Guy ('Cause He Does Punk Things) tabbass tab
15The Happy Guy tabbass tab
16Reeko tabbass tab
17Scavenger Type tabbass tab

 

1