Search tabs:
Browse artists: 0-9 | A | B | C | D | E | F | G | H | I | J | K | L | M | N | O | P | Q | R | S | T | U | V | W | X | Y | Z
/ NOFX / Punk in Drublic (1994) / My Heart Is Yearning guitar tab


Date: Mon, October 27 1997 
From: Peter Ferragine (iginition@yesic.com)
Group: NOFX
Released: 1994 epitaph records
Track: 6
Title: my heart is yearning

: - let ring
x - scratch
h - hammer on 
p - pull off


|---------------------------------------------------------
|---------------------------------------------------------
|---------------------------------------------------------
|---0---0---0--0---0---0----------------------------------
|-2---2---2------2---2-----4---4---5---5---5--5---5---5---
|------------------------5---5---3---3---3------3---3---2-

 ----------------------------------------------------------------------|
 ----------------------------------------------------------------------|
 ----------------------------------------------------------------------|
 ----------------------------------------------------------------------|
 -4---4---4---4----4--4---4---4---5---5---4---4---4--4---4---4---4---4-|
 ---2---5---5---5-------5---5---3---3---2---2---2------2---2---2---2---|

strum the first and third chords from high e to low e and the second and
fourth chords from low e to high e

|-1:-----3:-----2:-----2:-----|
|-1:-----3:-----2:-----2:-----|
|-2:-----4:-----2:-----3:-----|
|-3:-----5:-----2:-----4:-----|
|-3:-----5:-----0:-----4:-----|
|-1:-----3:-----x:-----2:-----|

then...

|---------------------------------------------------------------------------|
|---------------------------------------------------------------------------|
|---------------------------------------------------------------------------|
|-9-9-7-7------------------------------------7h9p7-7-9-7--------------------|
|---------9-9-7-7-----------------7-7----7h9-------------7-9-10-10-9-7----9-|
|-----------------10-10-7-7-10-10-----10-------------------------------10---|

outro

|---------------------------7--|
|---------------------------7--|
|---------------------------7--|
|---------------------------9--|
|-7-9-10-9-7-------9-----------|
|------------10-9-----7--------|

lyrics

for you, my heart was yearning, and how i love you so
it's 'cause of you, my dick is burning, it's dripping on my toe



NOFX albums
2003 War on Errorism
2000 Pump Up the Valuum
1997 So Long And Thanks For All The Shoes
1996 Heavy Petting Zoo
1995 I Heard They Suck Live!!
1994 Punk in Drublic
1993 The Longest Line
1993 White Trash, Two Heebs & A Bean
1991 Ribbed
1989 S & M Airlines
Punk in Drublic tabs
01Linolem tabbass tab
02Leave It Alone tabbass tab
03Dig tabbass tab
04The Cause tabbass tab
05Don't Call Me White tabbass tab
06My Heart Is Yearning tabbass tab
07A Perfect Government tabbass tab
08The Brews tabbass tab
09The Quass tabbass tab
10Dying Degree tabbass tab
11Fleas tabbass tab
12Lori Meyers tabbass tab
13Jeff Wears Birkenstocks? tabbass tab
14Punk Guy ('Cause He Does Punk Things) tabbass tab
15The Happy Guy tabbass tab
16Reeko tabbass tab
17Scavenger Type tabbass tab

 

1