Search tabs:
Browse artists: 0-9 | A | B | C | D | E | F | G | H | I | J | K | L | M | N | O | P | Q | R | S | T | U | V | W | X | Y | Z
/ NOFX / Punk in Drublic (1994) / Reeko guitar tab


Date: Sun, November 2 1997
From: Peter Ferragine (iginition@yesic.com)
Group: NOFX
Album: Punk In Drublic
Released: 1994 epitaph records
Track: 16
Title: reeko

/ \ - slide
^ - bend


verse - just keep playing this until you reach the heavy part

|-5-5--5--5-5--5--4-4--4--4-4--4--3-3--3--3-3--3--2-2--2--2-2--2-
|-6-6--6--6-6--6--4-4--4--4-4--4--3-3--3--3-3--3--3-3--3--3-3--3-
|-5-5--5--5-5--5--5-5--5--5-5--5--4-4--4--4-4--4--2-2--2--2-2--2-
|----------------------------------------------------------------
|----------------------------------------------------------------
|----------------------------------------------------------------

 -1-1--1--1-1--1--|
 -1-1--1--1-1--1--|
 -2-2--2--2-2--2--|
 -----------------|
 -----------------|
 -----------------|

solo

|---------------------------------------5--8-------------------------------
|-----------------/8--/8--/8--/8--------5-----8--/8--/8--/8----------------
|-----5--5^7--5---/9--/9--/9--/9--7--5-----------/9--/9--/9----------------
|-/7---------------------------------------------------------7--5--5^7---5-
|--------------------------------------------------------------------------
|--------------------------------------------------------------------------

 ---------------------------------------------------------------------------
 -------------------------------------------------------5--------------8----
 ----------5--------------------------------------------5^7---5----------7^-
 -7---5^7-----7---------------------------3-----5---/7-----------7--/7------
 --------------------3---5^3-------3--/5----/7------------------------------
 ----------------5------------5---------------------------------------------

 -------8-------------------------------------------------------------------|
 -8-----8^10--8^10---7---5----5---5-----------------------------------------|
 ----5---------------9---5^7--5---5^7--5---------------------5---7^-7--5--5-|
 -------------------------------7------------2--3--3/5/-5^7----7------------|
 -----------------------------------------3---------------------------------|
 ---------------------------------------------------------------------------|

"mr. president please understand.."

|-----------------------------------------------------------------
|-----------------------------------------------------------------
|-----------------5-5-5-5-5-5-5-5-----------------7-7-7-7-7-7-7-7-
|-5-5-5-5-5-5-5-5-5-5-5-5-5-5-5-5-5-5-5-5-5-5-5-5-7-7-7-7-7-7-7-7-
|-5-5-5-5-5-5-5-5-3-3-3-3-3-3-3-3-5-5-5-5-5-5-5-5-5-5-5-5-5-5-5-5-
|-3-3-3-3-3-3-3-3-----------------3-3-3-3-3-3-3-3-----------------

 -----------------------------------------------------------------|
 -----------------------------------------------------------------|
 -----------------------------------------------------------------|
 -7-7-7-7-7-7-7-7-5-5-5-5-5-5-5-5-3-3-3-3-3-3-3-3-7-7-7-7-7-7-7-7-|
 -7-7-7-7-7-7-7-7-5-5-5-5-5-5-5-5-3-3-3-3-3-3-3-3-7-7-7-7-7-7-7-7-|
 -5-5-5-5-5-5-5-5-3-3-3-3-3-3-3-3-1-1-1-1-1-1-1-1-5-5-5-5-5-5-5-5-|

lyrics

reeko, try to understand, it really is that bad, it won't just go away
the party's over, it's past two o'clock, so it's about time we stopped
'cause i see the keg has been sucked dry
the cisco was emptied into the aquarium, the fish all seem to float,
the ex lax lines the dog bowl, the toilets overflowed, we've had our fun so
there's nothing left, we got no place left to go
mr. president please understand, it really is that bad, it won't just go away
it's just beginning, the ballots have been cast, we make like seaward rats
leave this sinking ship, leave and not look back
the things we never tried to disallow, have come back to haunt us now
with apple pie and chevrolet, we've come to see the end, we all made this bed
now we got no where to lay, dies and gentlemen, try to understand



NOFX albums
2003 War on Errorism
2000 Pump Up the Valuum
1997 So Long And Thanks For All The Shoes
1996 Heavy Petting Zoo
1995 I Heard They Suck Live!!
1994 Punk in Drublic
1993 The Longest Line
1993 White Trash, Two Heebs & A Bean
1991 Ribbed
1989 S & M Airlines
Punk in Drublic tabs
01Linolem tabbass tab
02Leave It Alone tabbass tab
03Dig tabbass tab
04The Cause tabbass tab
05Don't Call Me White tabbass tab
06My Heart Is Yearning tabbass tab
07A Perfect Government tabbass tab
08The Brews tabbass tab
09The Quass tabbass tab
10Dying Degree tabbass tab
11Fleas tabbass tab
12Lori Meyers tabbass tab
13Jeff Wears Birkenstocks? tabbass tab
14Punk Guy ('Cause He Does Punk Things) tabbass tab
15The Happy Guy tabbass tab
16Reeko tabbass tab
17Scavenger Type tabbass tab

 

1