Search tabs:
Browse artists: 0-9 | A | B | C | D | E | F | G | H | I | J | K | L | M | N | O | P | Q | R | S | T | U | V | W | X | Y | Z
/ NOFX / Punk in Drublic (1994) / Scavenger Type guitar tab


Date: Sun, November 2 1997
From: Peter Ferragine (iginition@yesic.com)
Group: NOFX
Album: Punk In Drublic
Released: 1994 epitaph records
Track: 17
Title: scavenger type

x - scratch


intro

|---2-2----2-2----2-2----2-2----2-2----2--2--|
|---3-3----3-3----3-3----3-3----3-3----3--3--|
|---2-2----2-2----2-2----2-2----2-2----2--2--|
|-x------x------x------x------x------x-------|
|--------------------------------------------|
|--------------------------------------------|

verse - and the rest of the song ( just keep playin' this til the song ends )

|---2-2----2-2----2-2----2-2----2-2----2-2----2-2----2-2-
|---3-3----3-3----3-3----3-3----3-3----3-3----3-3----3-3-
|---2-2----2-2----2-2----2-2----1-1----1-1----1-1----1-1-
|-x------x------x------x------x------x------x------x-----
|--------------------------------------------------------
|--------------------------------------------------------

 ---0-0----0-0----0-0----0-0----3-3----3-3----3-3----3-3-|
 ---3-3----3-3----3-3----3-3----3-3----3-3----3-3----3-3-|
 ---2-2----2-2----2-2----2-2----0-0----0-0----0-0----0-0-|
 -x------x------x------x------x------x------x------x-----|
 --------------------------------------------------------|
 --------------------------------------------------------|

lyrics

gigin alone at the bottom of the hill, our protagonist named bill
sets his sights on an anchor steam pint, all he needs is thirteen quarters
congregated in his hat
a crow, a scavenger type, california redemption provides him with his rent
room and board inside a fifth of comfort
as the wind penetrates his bones, his mind keeps focus
tidal waves of sound, catapulted from his horn wail like lovers
the coins don't drop consistant as does the mercury
his meter slows realizing a zenith, he's reached perfection
no one did see him die



NOFX albums
2003 War on Errorism
2000 Pump Up the Valuum
1997 So Long And Thanks For All The Shoes
1996 Heavy Petting Zoo
1995 I Heard They Suck Live!!
1994 Punk in Drublic
1993 The Longest Line
1993 White Trash, Two Heebs & A Bean
1991 Ribbed
1989 S & M Airlines
Punk in Drublic tabs
01Linolem tabbass tab
02Leave It Alone tabbass tab
03Dig tabbass tab
04The Cause tabbass tab
05Don't Call Me White tabbass tab
06My Heart Is Yearning tabbass tab
07A Perfect Government tabbass tab
08The Brews tabbass tab
09The Quass tabbass tab
10Dying Degree tabbass tab
11Fleas tabbass tab
12Lori Meyers tabbass tab
13Jeff Wears Birkenstocks? tabbass tab
14Punk Guy ('Cause He Does Punk Things) tabbass tab
15The Happy Guy tabbass tab
16Reeko tabbass tab
17Scavenger Type tabbass tab

 

1