Search tabs:
Browse artists: 0-9 | A | B | C | D | E | F | G | H | I | J | K | L | M | N | O | P | Q | R | S | T | U | V | W | X | Y | Z
/ NOFX / Punk in Drublic (1994) / The Happy Guy guitar tab


Date: Sat, November 1 1997
From: Peter Ferragine (iginition@yesic.com)
Group: NOFX
Album: Punk In Drublic
Released: 1994 epitaph records
Track: 15
Title: happy guy

: - let ring
pm - palm mute
p - pull off
h - hammer on
~ - vibrato
/ \ - slide


intro

guitar 1 - play the first part, then the second and repeat the second once 
           more

|---------------|-------------------------------------------------
|---------------|-------------------------------------------------
|-5:-----5:-----|-5-5-5-5-5-5-5-5-4-4-4-4-4-4-4-4-----------------
|-5:-----5:-----|-5-5-5-5-5-5-5-5-4-4-4-4-4-4-4-4-7-7-7-7-7-7-7-7-
|-3:-----3:-----|-3-3-3-3-3-3-3-3-2-2-2-2-2-2-2-2-7-7-7-7-7-7-7-7-
|---------------|---------------------------------5-5-5-5-5-5-5-5-

 -----------------|
 -----------------|
 -5-5-5-5-5-5-5-5-|
 -5-5-5-5-5-5-5-5-|
 -3-3-3-3-3-3-3-3-|
 -----------------|

guitar 2 - repeat four times

|-----------------------------------------------------------------|
|-----------------------------------------------------------------|
|-5-5-5-5-5-5-5-5-------------------------------------------------|
|-5-5-5-5-5-5-5-5-2-2-2-2-2-2-2-2-3-3-3-3-3-3-3-3-6-6-6-6-6-6-6-6-|
|-3-3-3-3-3-3-3-3-2-2-2-2-2-2-2-2-3-3-3-3-3-3-3-3-6-6-6-6-6-6-6-6-|
|-----------------0-0-0-0-0-0-0-0-1-1-1-1-1-1-1-1-4-4-4-4-4-4-4-4-|

verse

guitar 2

|-----------------------------------------------------------------
|-----------------------------------------------------------------
|-5-5-5-5-5-5-5-5-4-4-4-4-4-4-4-4-----------------5-5-5-5-5-5-5-5-
|-5-5-5-5-5-5-5-5-4-4-4-4-4-4-4-4-7-7-7-7-7-7-7-7-5-5-5-5-5-5-5-5-
|-3-3-3-3-3-3-3-3-2-2-2-2-2-2-2-2-7-7-7-7-7-7-7-7-3-3-3-3-3-3-3-3-
|---------------------------------5-5-5-5-5-5-5-5-----------------

 ---------------------------------------------------------------------------
 ---------------------------------------------------------------------------
 -5-5-5-5-5-5-5-5-4-4-4-4-4-4-4-4---------------------------5-5-5-5-5-5-5-5-
 -5-5-5-5-5-5-5-5-4-4-4-4-4-4-4-4-7--7--7--5--3-3-3-3-3-3-3-5-5-5-5-5-5-5-5-
 -3-3-3-3-3-3-3-3-2-2-2-2-2-2-2-2-7--7--7--5--3-3-3-3-3-3-3-3-3-3-3-3-3-3-3-
 ---------------------------------5--5--5--3--1-1-1-1-1-1-1-----------------

 -------------------------------------------------------------------------
 -------------------------------------------------------------------------
 -7-7-7-7-7-7-7-7-7-7-7-7-7-7-7-7-10-10-10-10-10-10-10-10-5-5-5-5-5-5-5-5-
 -7-7-7-7-7-7-7-7-7-7-7-7-7-7-7-7-10-10-10-10-10-10-10-10-5-5-5-5-5-5-5-5-
 -5-5-5-5-5-5-5-5-5-5-5-5-5-5-5-5--8--8--8--8--8--8--8--8-3-3-3-3-3-3-3-3-
 -------------------------------------------------------------------------

 ---------------------------------------------------------------------------
 ---------------------------------------------------------------------------
 -4-4-4-4-4-4-4-4---------------------------5-5-5-5-5-5-5-5-----------------
 -4-4-4-4-4-4-4-4-7--7--7--5--3-3-3-3-3-3-3-5-5-5-5-5-5-5-5-5-5-5-5-5-5-5-5-
 -2-2-2-2-2-2-2-2-7--7--7--5--3-3-3-3-3-3-3-3-3-3-3-3-3-3-3-5-5-5-5-5-5-5-5-
 -----------------5--5--5--3--1-1-1-1-1-1-1-----------------3-3-3-3-3-3-3-3-

 -----------------------------------------------------------------
 -----------------------------------------------------------------
 -3-3-3-3-3-3-3-3-----------------5-5-5-5-5-5-5-5-----------------
 -3-3-3-3-3-3-3-3-3-3-3-3-3-3-3-3-5-5-5-5-5-5-5-5-5-5-5-5-5-5-5-5-
 -1-1-1-1-1-1-1-1-3-3-3-3-3-3-3-3-3-3-3-3-3-3-3-3-5-5-5-5-5-5-5-5-
 -----------------1-1-1-1-1-1-1-1-----------------3-3-3-3-3-3-3-3-

 ---------------------------|
 ---------------------------|
 -------------5-5-5-5-5-5-5-|
 -3--3--3--3--5-5-5-5-5-5-5-|
 -3--3--3--3--3-3-3-3-3-3-3-|
 -1--1--1--1----------------|

guitar 2

|-----------------------------------------------------------------
|-----------------------------------------------------------------
|-5-5-5-5-5-5-5-5-------------------------------------------------
|-5-5-5-5-5-5-5-5-2-2-2-2-2-2-2-2-3-3-3-3-3-3-3-3-6-6-6-6-6-6-6-6-
|-3-3-3-3-3-3-3-3-2-2-2-2-2-2-2-2-3-3-3-3-3-3-3-3-6-6-6-6-6-6-6-6-
|-----------------0-0-0-0-0-0-0-0-1-1-1-1-1-1-1-1-4-4-4-4-4-4-4-4-

 ---------------------------------------------------------------------------
 ---------------------------------------------------------------------------
 -5-5-5-5-5-5-5-5-4-4-4-4-4-4-4-4---------------------------5-5-5-5-5-5-5-5-
 -5-5-5-5-5-5-5-5-4-4-4-4-4-4-4-4-7--7--7--5--3-3-3-3-3-3-3-5-5-5-5-5-5-5-5-
 -3-3-3-3-3-3-3-3-2-2-2-2-2-2-2-2-7--7--7--5--3-3-3-3-3-3-3-3-3-3-3-3-3-3-3-
 ---------------------------------5--5--5--3--1-1-1-1-1-1-1-----------------

 -----------------------------------------------------------------
 -----------------------------------------------------------------
 -----------------7-7-7-7-7-7-7-7-----------------5-5-5-5-5-5-5-5-
 -5-5-5-5-5-5-5-5-7-7-7-7-7-7-7-7-3-3-3-3-3-3-3-3-5-5-5-5-5-5-5-5-
 -5-5-5-5-5-5-5-5-5-5-5-5-5-5-5-5-3-3-3-3-3-3-3-3-3-3-3-3-3-3-3-3-
 -3-3-3-3-3-3-3-3-----------------1-1-1-1-1-1-1-1-----------------

 ---------------------------------------------------------------------------
 ---------------------------------------------------------------------------
 -4-4-4-4-4-4-4-4---------------------------5-5-5-5-5-5-5-5-----------------
 -4-4-4-4-4-4-4-4-7--7--7--5--3-3-3-3-3-3-3-5-5-5-5-5-5-5-5-5-5-5-5-5-5-5-5-
 -2-2-2-2-2-2-2-2-7--7--7--5--3-3-3-3-3-3-3-3-3-3-3-3-3-3-3-5-5-5-5-5-5-5-5-
 -----------------5--5--5--3--1-1-1-1-1-1-1-----------------3-3-3-3-3-3-3-3-

 -----------------------------------------------------------------
 -----------------------------------------------------------------
 -3-3-3-3-3-3-3-3-----------------5-5-5-5-5-5-5-5-----------------
 -3-3-3-3-3-3-3-3-3-3-3-3-3-3-3-3-5-5-5-5-5-5-5-5-5-5-5-5-5-5-5-5-
 -1-1-1-1-1-1-1-1-3-3-3-3-3-3-3-3-3-3-3-3-3-3-3-3-5-5-5-5-5-5-5-5-
 -----------------1-1-1-1-1-1-1-1-----------------3-3-3-3-3-3-3-3-

 ----------------------------|
 ----------------------------|
 --------------5-5-5-5-5-5-5-|
 --3--3--3--3--5-5-5-5-5-5-5-|
 --3--3--3--3--3-3-3-3-3-3-3-|
 --1--1--1--1----------------|

bridge - repeat twice

|-----------------------------------------------------------------
|-----------------------------------------------------------------
|---------------------------------5-5-5-5-5-5-5-5-----------------
|-7-7-7-7-7-7-7-7-3-3-3-3-3-3-3-3-5-5-5-5-5-5-5-5-5-5-5-5-5-5-5-5-
|-7-7-7-7-7-7-7-7-3-3-3-3-3-3-3-3-3-3-3-3-3-3-3-3-5-5-5-5-5-5-5-5-
|-5-5-5-5-5-5-5-5-1-1-1-1-1-1-1-1-----------------3-3-3-3-3-3-3-3-

                                 pm________________|
 --------------------------------------------------|
 --------------------------------------------------|
 --------------------------------------------------|
 -7-7-7-7-7-7-7-7-8-8-8-8-8-8-8-8--3-3-3-3-3-3-3-3-|
 -7-7-7-7-7-7-7-7-8-8-8-8-8-8-8-8--3-3-3-3-3-3-3-3-|
 -5-5-5-5-5-5-5-5-6-6-6-6-6-6-6-6--1-1-1-1-1-1-1-1-|

solo

|-13p12-12-12-13p12-12-12-13p12-12---------12-13-12-10-----12~-12~-10-
|-----------------------------------10p12---------------13------------
|---------------------------------------------------------------------
|---------------------------------------------------------------------
|---------------------------------------------------------------------
|---------------------------------------------------------------------

 --------------------------------------------------------|
 --------------------------------------------------------|
 ----------------10h12p10---10h12p10---------10----------|
 --/10-/12-----------------------------12---------12-10--|
 --------------------------------------------------------|
 --------------------------------------------------------|

outro

guitar 1

|-----------------------------------------------------------------
|-----------------------------------------------------------------
|-5-5-5-5-5-5-5-5-7-7-7-7-7-7-7-7-9-9-9-9-9-9-9-9-7-7-7-7-7-7-7-7-
|-5-5-5-5-5-5-5-5-7-7-7-7-7-7-7-7-9-9-9-9-9-9-9-9-7-7-7-7-7-7-7-7-
|-3-3-3-3-3-3-3-3-5-5-5-5-5-5-5-5-7-7-7-7-7-7-7-7-5-5-5-5-5-5-5-5-
|-----------------------------------------------------------------

 --------------------------------------------------------|
 --------------------------------------------------------|
 -10-10-10-10-10-10-10-10-13-13-13-13-13-13-13-13-12:----|
 -10-10-10-10-10-10-10-10-13-13-13-13-13-13-13-13-12:----|
 --8--8--8--8--8--8--8--8-11-11-11-11-11-11-11-11-10:----|
 --------------------------------------------------------|

guitar 2

|-----------------------------------------------------------------
|-----------------------------------------------------------------
|-5-5-5-5-5-5-5-5-4-4-4-4-4-4-4-4---------------------------------
|-5-5-5-5-5-5-5-5-4-4-4-4-4-4-4-4-7-7-7-7-7-7-7-7-5-5-5-5-5-5-5-5-
|-3-3-3-3-3-3-3-3-2-2-2-2-2-2-2-2-7-7-7-7-7-7-7-7-5-5-5-5-5-5-5-5-
|---------------------------------5-5-5-5-5-5-5-5-3-3-3-3-3-3-3-3-

 ---------------------------------------|
 ---------------------------------------|
 ---------------------------------9:----|
 -3-3-3-3-3-3-3-3-3-3-3-3-3-3-3-3-9:----|
 -3-3-3-3-3-3-3-3-3-3-3-3-3-3-3-3-7:----|
 -1-1-1-1-1-1-1-1-1-1-1-1-1-1-1-1-------|

lyrics

he's just a man, getting through life the best he can
he's not a scientist, he programs a computer before that he sold cars
to pay a student loan now he receives pity from his family
his friends say how can he turn his back on reason worshipping
a god finding truth through fear and mind control
he's just a man trying to explain how he found the word of god
could make life seem less insane
so he share's what he's read, what he understands, it makes sense to him
it makes perfect sense to him in fact he's never seen so clearly
turned his back on free will, has he lost his mind? he'd rather kneel down
then take charge of his life
and he know's what people think but it doesn't sway him
he can read the writings on the wall
'cause he knows how people treat, how they treat each other
a sacrafice to benefit the all
don't try to judge him, his theologian ideals
his hopes may be false but his happiness is real
don't try to judge him, he's just a man



NOFX albums
2003 War on Errorism
2000 Pump Up the Valuum
1997 So Long And Thanks For All The Shoes
1996 Heavy Petting Zoo
1995 I Heard They Suck Live!!
1994 Punk in Drublic
1993 The Longest Line
1993 White Trash, Two Heebs & A Bean
1991 Ribbed
1989 S & M Airlines
Punk in Drublic tabs
01Linolem tabbass tab
02Leave It Alone tabbass tab
03Dig tabbass tab
04The Cause tabbass tab
05Don't Call Me White tabbass tab
06My Heart Is Yearning tabbass tab
07A Perfect Government tabbass tab
08The Brews tabbass tab
09The Quass tabbass tab
10Dying Degree tabbass tab
11Fleas tabbass tab
12Lori Meyers tabbass tab
13Jeff Wears Birkenstocks? tabbass tab
14Punk Guy ('Cause He Does Punk Things) tabbass tab
15The Happy Guy tabbass tab
16Reeko tabbass tab
17Scavenger Type tabbass tab

 

1