Search tabs:
Browse artists: 0-9 | A | B | C | D | E | F | G | H | I | J | K | L | M | N | O | P | Q | R | S | T | U | V | W | X | Y | Z
/ NOFX / Ribbed (1991) / Food, Sex & Ewe guitar tab


Date: Fri, October 17 1997 
From: Peter Ferragine (iginition@yesic.com)
Group: NOFX
Album: Ribbed
Released: 1991 epitaph records
Track: 4
Title: Food, Sex, and Ewe

x - scratch


intro

|---------------------------------------------------------|
|---------------------------------------------------------|
|-9-9-9-9-9-9-12-9-9-9-9-x-x-x-x-x-9-9-9-9-9-9-12-9-9-9-9-| 
|-9-9-9-9-9-9-12-9-9-9-9-x-x-x-x-x-9-9-9-9-9-9-12-9-9-9-9-|
|-7-7-7-7-7-7-10-7-7-7-7-x-x-x-x-x-7-7-7-7-7-7-10-7-7-7-7-|
|---------------------------------------------------------|

then...

|--------------------------------------------------|
|--------------------------------------------------|
|-12-12-12-12-12-12-14-12-12-12-12-12-12-x-x-x-x-x-|  played twice
|-12-12-12-12-12-12-14-12-12-12-12-12-12-x-x-x-x-x-|
|-10-10-10-10-10-10-12-10-10-10-10-10-10-x-x-x-x-x-|
|--------------------------------------------------|

riff

|-------------------------------------------------|
|-------------------------------------------------|
|-------------------------------------------------|
|-------------------------------------------------|
|---0-2-3-0-2-3-3-3-5-5-5---0-2-3-0-2-3-3-3-5-5-5-|
|-3-----------------------3-----------------------|

verse

|-------------------------------------------------------------------------|
|-------------13-13-15-15-------------13-13-15-15-------------13-13-15-15-|
|-12-12-12-12-12-12-14-14-12-12-12-12-12-12-14-14-12-12-12-12-12-12-14-14-|
|-12-12-12-12-------------12-12-12-12-------------12-12-12-12-------------|
|-------------------------------------------------------------------------|
|-------------------------------------------------------------------------|

|-------------------------------------------------|-------------------------|
|-------------13-13-15-15-------------13-13-15-15-|-------------------------|
|-12-12-12-12-12-12-14-14-12-12-12-12-12-12-14-14-|-5---7---5---7---5---7---|
|-12-12-12-12-------------12-12-12-12-------------|-5---7---5---7---5---7---|
|-------------------------------------------------|-3---5---3---5---3---5---|
|-------------------------------------------------|-------------------------|

solo

|-------------------------------------|
|-8-8-8-8-8-7-------8-8-8-8-8-7---7-8-|
|-------------9-7-7-------------9-----|
|-------------------------------------|
|-------------------------------------|
|-------------------------------------|

|----------------------8-------------------------------------|
|-----8-8---8-10-12-10---12-10-12-------8-8---8-10-12-10-7-8-|
|-7-9-----9-----------------------7-7-9-----9----------------|
|------------------------------------------------------------|
|------------------------------------------------------------|
|------------------------------------------------------------|

i'd rather have a bottle in front of me, i'd rather watch 10 hours of tv
but since i can't i'll think of food, i'll think of sex, 
i'll think of music, and i'll think of you
i'd rather have a cold one by the sea, 
i'd rather have you sitting on top o'me
but since i'm here and you're so far away
i'll read about zaphod beeblebrox, as i pass the day, hey
i'd rather not spend my whole night driving
i'd rather not be on so much caffeine
but since you're in a bed and i'm sleeping on some floor, 
i'll think of you and i'll wish that i was home



NOFX albums
2003 War on Errorism
2000 Pump Up the Valuum
1997 So Long And Thanks For All The Shoes
1996 Heavy Petting Zoo
1995 I Heard They Suck Live!!
1994 Punk in Drublic
1993 The Longest Line
1993 White Trash, Two Heebs & A Bean
1991 Ribbed
1989 S & M Airlines
Ribbed tabs
01Green Corn tabbass tab
02The Moron Brothers tabbass tab
03Showerdays tabbass tab
04Food, Sex & Ewe tabbass tab
05Just The Flu tabbass tab
06El Lay tabbass tab
07New Boobs tabbass tab
08Cheese tabbass tab
09Where's My Slice tabbass tab
10Together On The Sand tabbass tab
11Nowhere tabbass tab
12Brain Constipation tabbass tab
13Gonoherpasyphlaids tabbass tab
14I Don't Want You Around tabbass tab
15The Malachi Crunch tabbass tab

 

1