Search tabs:
Browse artists: 0-9 | A | B | C | D | E | F | G | H | I | J | K | L | M | N | O | P | Q | R | S | T | U | V | W | X | Y | Z
/ NOFX / Ribbed (1991) / Gonoherpasyphlaids guitar tab


Date: Sun, October 18 1997
From: Peter Ferragine (iginition@yesic.com)
Group: NOFX
Album: Ribbed
Released: 1991 epitaph records
Track: 11
Title: gonoherpasyphilaids

pm - palm mute


intro/post verse

          pm_____________|         |_____________|         |______________|
|-------------------------------------------------------------------------|
|-------------------------------------------------------------------------|
|-----5-7-7-9-9-9-9-9-9-9-----5-7-7-9-9-9-9-9-9-9-----5-7-7-9-9-9-9-9-9-9-|
|-7-7-5-7-7-9-9-9-9-9-9-9-7-7-5-7-7-9-9-9-9-9-9-9-7-7-5-7-7-9-9-9-9-9-9-9-|
|-7-7-3-5-5-7-7-7-7-7-7-7-7-7-3-5-5-7-7-7-7-7-7-7-7-7-3-5-5-7-7-7-7-7-7-7-|
|-5-5---------------------5-5---------------------5-5---------------------|

verse

pm_______________________|
|-------------------------------------------------------------------------
|-------------------------------------------------------------------------
|-------------------------7-7-7-7-7-7-7-7-4-4-4-4-4-4-4-4-6-7-7-7-7-11-11-
|-7-7-7-7-7-7-7-7-7-7-7-7-7-7-7-7-7-7-7-7-4-4-4-4-4-4-4-4-6-7-7-7-7-11-11-
|-7-7-7-7-7-7-7-7-7-7-7-7-5-5-5-5-5-5-5-5-2-2-2-2-2-2-2-2-4-5-5-5-5--9--9-
|-5-5-5-5-5-5-5-5-5-5-5-5-------------------------------------------------

 -------------------|
 -------------------|
 -11-11-11-11-11-11-|
 -11-11-11-11-11-11-|
 --9--9--9--9--9--9-|
 -------------------|

post verse 2

           pm______________|
|-------------------------------------------|
|-------------------------------------------|
|-----5-7-7-9-9-9-9-9-9-9-9-----9-9-7-7-9-9-|
|-7-7-5-7-7-9-9-9-9-9-9-9-9-7-7-9-9-7-7-9-9-|
|-7-7-3-5-5-7-7-7-7-7-7-7-7-7-7-7-7-5-5-7-7-|
|-5-5-----------------------5-5-------------|

verse 2 

pm________________________________|
|---------------------------------|
|---------------------------------|
|-5-5-5-5-5-5-5-5-5-5-5-5-5-5-5-5-|
|-5-5-5-5-5-5-5-5-5-5-5-5-5-5-5-5-|
|-3-3-3-3-3-3-3-3-3-3-3-3-3-3-3-3-|
|---------------------------------|

chorus - I think it's the chorus

|------------------------------------------------------------------------
|------------------------------------------------------------------------
|-5-5-5-5-5-5-5-5-10-10-10-10-10-10-10-10-5-5-5-5-5-5-5-5-8-10-10-10-10--
|-5-5-5-5-5-5-5-5-10-10-10-10-10-10-10-10-5-5-5-5-5-5-5-5-8-10-10-10-10--
|-3-3-3-3-3-3-3-3--8--8--8--8--8--8--8--8-3-3-3-3-3-3-3-3-6--8--8--8--8--
|------------------------------------------------------------------------

 -------------|
 -------------|
 -10-10-10-10-|
 -10-10-10-10-|
 --8--8--8--8-|
 -------------|

outro
           pm____________|         |_____________|         |_____________|
|-------------------------------------------------------------------------
|-------------------------------------------------------------------------
|-----5-7-7-9-9-9-9-9-9-9-----5-7-7-9-9-9-9-9-9-9-----5-7-7-9-9-9-9-9-9-9-
|-7-7-5-7-7-9-9-9-9-9-9-9-7-7-5-7-7-9-9-9-9-9-9-9-7-7-5-7-7-9-9-9-9-9-9-9-
|-7-7-3-5-5-7-7-7-7-7-7-7-7-7-3-5-5-7-7-7-7-7-7-7-7-7-3-5-5-7-7-7-7-7-7-7-
|-5-5---------------------5-5---------------------5-5---------------------

 --------------------|
 --------------------|
 -----9-9-7-7-9-9-14-|
 -7-7-9-9-7-7-9-9-14-|
 -7-7-7-7-5-5-7-7-12-|
 -5-5----------------|

lyrics

sitting in a room waiting for some news,
sitting in a room with white knuckles, not feeling so good
i didn't do the things i should
i said, "doc, tell me what's wrong with me"
he had this expression he didn't know what to say
"it seems that you've contracted a new strain"
how could this happen to me? another victim another casualty
from fucking casually, another casualty
all the times i should have worn a jimmy hat, 
all the times i said "what the fuck, i won't look back, that's not for me"
i wouldn't listen to reason, now look at me



NOFX albums
2003 War on Errorism
2000 Pump Up the Valuum
1997 So Long And Thanks For All The Shoes
1996 Heavy Petting Zoo
1995 I Heard They Suck Live!!
1994 Punk in Drublic
1993 The Longest Line
1993 White Trash, Two Heebs & A Bean
1991 Ribbed
1989 S & M Airlines
Ribbed tabs
01Green Corn tabbass tab
02The Moron Brothers tabbass tab
03Showerdays tabbass tab
04Food, Sex & Ewe tabbass tab
05Just The Flu tabbass tab
06El Lay tabbass tab
07New Boobs tabbass tab
08Cheese tabbass tab
09Where's My Slice tabbass tab
10Together On The Sand tabbass tab
11Nowhere tabbass tab
12Brain Constipation tabbass tab
13Gonoherpasyphlaids tabbass tab
14I Don't Want You Around tabbass tab
15The Malachi Crunch tabbass tab

 

1