Search tabs:
Browse artists: 0-9 | A | B | C | D | E | F | G | H | I | J | K | L | M | N | O | P | Q | R | S | T | U | V | W | X | Y | Z
/ NOFX / Ribbed (1991) / Green Corn guitar tab


Date: Thurs, October 16 1997
From: Peter Ferragine (iginition@yesic.com)
Group: NOFX
Album: Ribbed
Released: 1991 epitaph records
Track: 1
Title: green corn

: - let ring


intro

|------------------------------------------|
|------------------------------------------|
|-------10-11-11-11--14-12-14-7-5--7-5---5-|
|-11-10-10-11-11-11--14-12-14-7-5--7-5-7-5-|
|-11-10--8--9--9--9--12-10-12-5-3--5-3-7-3-|
|--9--8--------------------------------5---|

|------------------------------------------|
|------------------------------------------|
|-14-12-14--7-5-7-5---9-10-9-5--5-5-5------|
|-14-12-14--7-5-7-5-7-9-10-9-5--5-5-5-7:---|
|-12-10-12--5-3-5-3-7-7--8-7-3--3-3-3-7:---|
|-------------------5-----------------5:---|

|-----------------------------------------------------------------|
|-----------------------------------------------------------------|
|-------------5-2-------------------------------------------------|
|-3-2-3-3-3-3-5-2---3-2-3-3-3-3--7-7-7-7--5-5-5-5-2-2-2-2-2-2-2-2-|
|-3-2-3-3-3-3-3-0---3-2-3-3-3-3--7-7-7-7--5-5-5-5-2-2-2-2-2-2-2-2-|
|-1-0-1-1-1-1-------1-0-1-1-1-1--5-5-5-5--3-3-3-3-0-0-0-0-0-0-0-0-|

verse

|-------------------------------------------------------------------------
|-------------------------------------------------------------------------
|--------------------------------5-5-5-5-5--------------------------------
|-7-7-7-7-7-3-3-3-3-3--3-3-3-3-3-5-5-5-5-5--9-9-9-9-9-5-5-5-5-5-3-3-3-3-3-
|-7-7-7-7-7-3-3-3-3-3--3-3-3-3-3-3-3-3-3-3--9-9-9-9-9-5-5-5-5-5-3-3-3-3-3-
|-5-5-5-5-5-1-1-1-1-1--1-1-1-1-1------------7-7-7-7-7-3-3-3-3-3-1-1-1-1-1-

 --------------------------------------------------------------------------
 --------------------------------------------------------------------------
 -5-5-5-5-5---------------------------------5-5-5-5-5----------------------
 -5-5-5-5-5--7-7-7-7-7-3-3-3-3-3--3-3-3-3-3-5-5-5-5-5--9-9-9-9-9-5-5-5-5-5-
 -3-3-3-3-3--7-7-7-7-7-3-3-3-3-3--3-3-3-3-3-3-3-3-3-3--9-9-9-9-9-5-5-5-5-5-
 ------------5-5-5-5-5-1-1-1-1-1--1-1-1-1-1------------7-7-7-7-7-3-3-3-3-3-

 ---------------------|
 ---------------------|
 -----------5-5-5-5-5-|
 -3-3-3-3-3-5-5-5-5-5-|
 -3-3-3-3-3-3-3-3-3-3-|
 -1-1-1-1-1-----------|

after that...

|-----------------------------------------------------------|
|-----------------------------------------------------------|
|-14-12-14-7-5-7-5---5-14-12-14-7-5-7-5---9-10-9-7-5--5-5-5-|
|-14-12-14-7-5-7-5-7-5-14-12-14-7-5-7-5-7-9-10-9-7-5--5-5-5-|
|-12-10-12-5-3-5-3-7-3-12-10-12-5-3-5-3-7-7--8-7-5-3--3-3-3-|
|------------------5--------------------5-------------------|

outro

|-----------------------------------------------------------|
|-----------------------------------------------------------|
|-14-12-14-7-5--14-12-14-7-5---14-12-14-7-5-7-5-------------|
|-14-12-14-7-5--14-12-14-7-5---14-12-14-7-5-7-5-7-----------|
|-12-10-12-5-3--12-10-12-5-3---12-10-12-5-3-5-3-7-----------|
|-----------------------------------------------5-----------|

lyrics

sometimes i think of all the places where i don't wanna go
then i think of all the things i don't wanna do
and when i think of all the people that i don't wanna meet 
i close my eyes and i go to sleep
tully, baby, you're trapped behind your golden bars
i'm the prince of poverty hangin' out in bars
your life's a mercedes, a mansion with a pool
my life's on a bus stop just waiting for some fuel
your obviousness disgusts me i see thru your macho lies
i'll fight everything you stand for 
there's something in your purse baby, my head is getting sore
maybe what we had was just green corn



NOFX albums
2003 War on Errorism
2000 Pump Up the Valuum
1997 So Long And Thanks For All The Shoes
1996 Heavy Petting Zoo
1995 I Heard They Suck Live!!
1994 Punk in Drublic
1993 The Longest Line
1993 White Trash, Two Heebs & A Bean
1991 Ribbed
1989 S & M Airlines
Ribbed tabs
01Green Corn tabbass tab
02The Moron Brothers tabbass tab
03Showerdays tabbass tab
04Food, Sex & Ewe tabbass tab
05Just The Flu tabbass tab
06El Lay tabbass tab
07New Boobs tabbass tab
08Cheese tabbass tab
09Where's My Slice tabbass tab
10Together On The Sand tabbass tab
11Nowhere tabbass tab
12Brain Constipation tabbass tab
13Gonoherpasyphlaids tabbass tab
14I Don't Want You Around tabbass tab
15The Malachi Crunch tabbass tab

 

1