Search tabs:
Browse artists: 0-9 | A | B | C | D | E | F | G | H | I | J | K | L | M | N | O | P | Q | R | S | T | U | V | W | X | Y | Z
/ NOFX / Ribbed (1991) / Just The Flu guitar tab


Date: Fri, October 17 1997 
From: Peter Ferragine (iginition@yesic.com)
Group: NOFX
Album: Ribbed
Released: 1991 epitaph records
Track: 5
Title: just the flu

x - scratch 
pm - palm mute


intro

|-----------------------------------------------------------------------|
|-----------------------------------------------------------------------|
|-----------------------------------------------------------5-5-5-4-4-4-|
|-x-x-7-x-x-7---------x-x-7-x-x-7---------x-x-7-x-x---------5-5-5-4-4-4-|
|-x-x-7-x-x-7-5-6-7-7-x-x-7-x-x-7-5-6-7-7-x-x-7-x-x-5-6-7-7-3-3-3-2-2-2-|
|-x-x-5-x-x-5---------x-x-5-x-x-5---------x-x-5-x-x---------------------|

play the above 4 times then...

pm____________________________|
|-----------------------------|
|-----------------------------|
|-----------------------------|
|-----------------------------|
|-7-7-7-7-7-7-7-7-10-10-10-10-|
|-5-5-5-5-5-5-5-5--8--8--8--8-|

riff

|-12-12-12-12-12-12-12-12-10----10------------------------|
|----------------------------12----12-10-----10-----------|
|-----------------------------------------11----11-10-9-7-|
|---------------------------------------------------------|
|---------------------------------------------------------|
|---------------------------------------------------------|

verse - played four times

|-----------------------------------------------------------------|
|-----------------------------------------------------------------|
|---------------------------------5-5-5-5-5-5-5-5-7-7-7-7-7-7-7-7-|
|-7-7-7-7-7-7-7-7-3-3-3-3-3-3-3-3-5-5-5-5-5-5-5-5-7-7-7-7-7-7-7-7-|
|-7-7-7-7-7-7-7-7-3-3-3-3-3-3-3-3-3-3-3-3-3-3-3-3-5-5-5-5-5-5-5-5-|
|-5-5-5-5-5-5-5-5-1-1-1-1-1-1-1-1---------------------------------|

verse 2

|-------------------------------------------------------------------|
|-------------------------------------------------------------------|
|--5-5-5-5-5-5-5-5-7-7-7-7-7-7-7-7--5-5-5-5-5-5-5-5-7-7-7-7-7-7-7-7-|
|--5-5-5-5-5-5-5-5-7-7-7-7-7-7-7-7--5-5-5-5-5-5-5-5-7-7-7-7-7-7-7-7-|
|--3-3-3-3-3-3-3-3-5-5-5-5-5-5-5-5--3-3-3-3-3-3-3-3-5-5-5-5-5-5-5-5-|
|-------------------------------------------------------------------|

bridge

|----------------------------------------------------------|
|----------------------------------------------------------|
|----------------------------------------------------------|
|----------------------------------------------------------|
|-7-7-5-8-8-7-10-8-7-7-7-5-8-8-7-10-8-7-7-7-5-8-8-7-10-8-7-|
|-5-5-3-6-6-5--8-6-5-5-5-3-6-6-5--8-6-5-5-5-3-6-6-5--8-6-5-|

outro

|-------------------------|
|-------------------------|
|-------------------------|
|-5---5---5---5--5--5--7--|
|-5---5---5---5--5--5--7--|
|-3---3---3---3--3--3--5--|

lyrics

looking back to the past, predictions of the end, unseen ultra violet rays
are beating on my head, nuclear threat wanna bet will be our demise
the day will come when we'll look to apocalyptic skies
when the news had spread, that soon we'd all be dead
well i just blew our minds
no one could have guessed that our worst fears at best
figments of our time
so it seems that our dreams will never come to be
how could such a stupid thing destroy humanity?
a few weeks till extinction and there's nothing we can do
a message sent to other worlds will say, "it was just the flu"
there's no lesson to be learned, there's no one left to learn it
 


NOFX albums
2003 War on Errorism
2000 Pump Up the Valuum
1997 So Long And Thanks For All The Shoes
1996 Heavy Petting Zoo
1995 I Heard They Suck Live!!
1994 Punk in Drublic
1993 The Longest Line
1993 White Trash, Two Heebs & A Bean
1991 Ribbed
1989 S & M Airlines
Ribbed tabs
01Green Corn tabbass tab
02The Moron Brothers tabbass tab
03Showerdays tabbass tab
04Food, Sex & Ewe tabbass tab
05Just The Flu tabbass tab
06El Lay tabbass tab
07New Boobs tabbass tab
08Cheese tabbass tab
09Where's My Slice tabbass tab
10Together On The Sand tabbass tab
11Nowhere tabbass tab
12Brain Constipation tabbass tab
13Gonoherpasyphlaids tabbass tab
14I Don't Want You Around tabbass tab
15The Malachi Crunch tabbass tab

 

1