Search tabs:
Browse artists: 0-9 | A | B | C | D | E | F | G | H | I | J | K | L | M | N | O | P | Q | R | S | T | U | V | W | X | Y | Z
/ NOFX / Ribbed (1991) / Nowhere guitar tab


Date: Sun, October 19 1997
From: Peter Ferragine (iginition@yesic.com)
Group: NOFX
Album: Ribbed
Released: 1991 epitaph records
Track: 10
Title: nowhere

/ \ - slide
: - let ring
h - hammer on
p - pull off
~ - vibrato


intro

|---------------|
|---------------|
|-----6/7-13/14-|
|-7---6/7-13/14-|
|-7---4/5-11/12-|
|-5-------------|

|-------------------------------------------------------|
|-------------------------------------------------------|
|---------------------------------------5---5-7-5-------|
|-7-5-7-5-7-5-7-5-7-5-7-5-7-5-3-2-3-2-5-5---5-7-5--7:---|
|-7-5-7-5-7-5-7-5-7-5-7-5-7-5-3-2-3-2-5-3-5-3-5-3--7:---|
|-5-3-5-3-5-3-5-3-5-3-5-3-5-3-1-0-1-0-3---3--------5:---|

verse

|-----------------------------------------------------------------
|-----------------------------------------------------------------
|-5-5-5-5-5-5-5-5-----------------7-7-7-7-7-7-7-7-----------------
|-5-5-5-5-5-5-5-5-5-5-5-5-5-5-5-5-7-7-7-7-7-7-7-7-3-3-3-3-3-3-3-3-
|-3-3-3-3-3-3-3-3-5-5-5-5-5-5-5-5-5-5-5-5-5-5-5-5-3-3-3-3-3-3-3-3-
|-----------------3-3-3-3-3-3-3-3-----------------1-1-1-1-1-1-1-1-

 -----------------------------------------------------------------|
 -----------------------------------------------------------------|
 -5-5-5-5-5-5-5-5-7-7-7-7-7-7-7-7---------------------------------|
 -5-5-5-5-5-5-5-5-7-7-7-7-7-7-7-7-3-3-3-3-3-3-3-3-5-5-5-5-5-5-5-5-|
 -3-3-3-3-3-3-3-3-5-5-5-5-5-5-5-5-3-3-3-3-3-3-3-3-5-5-5-5-5-5-5-5-|
 ---------------------------------1-1-1-1-1-1-1-1-3-3-3-3-3-3-3-3-|

riff

|-10h12p10h12p10h12p10-10h12p10h12p10h12p10-10h12p10h12p10h12p10-\--|
|-------------------------------------------------------------------|
|-------------------------------------------------------------------|
|-------------------------------------------------------------------|
|-------------------------------------------------------------------|
|-------------------------------------------------------------------|

verse 2 

|-------------------------------------------------------------------------|
|-------------------------------------------------------------------------|
|-----5-------7-------5---7-7-7-7-7-7-7-7---------------------------------|
|-7---5---5---7---3---5---7-7-7-7-7-7-7-7-3-3-3-3-3-3-3-3-5-5-5-5-5-5-5-5-|
|-7---3---5---5---3---3---5-5-5-5-5-5-5-5-3-3-3-3-3-3-3-3-5-5-5-5-5-5-5-5-|
|-5-------3-------1-----------------------1-1-1-1-1-1-1-1-3-3-3-3-3-3-3-3-|

riff 2

|-----12-10------------------------------|
|-5/8-------12-11-8-10-8~~---------------|
|--------------------------9~~-11~~-12\--|
|----------------------------------------|
|----------------------------------------|
|----------------------------------------|

verse 3

|-----------------------------------------------------------------
|-----------------------------------------------------------------
|-----------------5-5-5-5-5-5-5-5-----------------7-7-7-7-7-7-7-7-
|-7-7-7-7-7-7-7-7-5-5-5-5-5-5-5-5-5-5-5-5-5-5-5-5-7-7-7-7-7-7-7-7-
|-7-7-7-7-7-7-7-7-3-3-3-3-3-3-3-3-5-5-5-5-5-5-5-5-5-5-5-5-5-5-5-5-
|-5-5-5-5-5-5-5-5-----------------3-3-3-3-3-3-3-3-----------------

 ---------------------------------------------------------|
 ---------------------------------------------------------|
 -----5---7-7-7-7-7-7-7-7---------------------------------|
 -3---5---7-7-7-7-7-7-7-7-3-3-3-3-3-3-3-3-5-5-5-5-5-5-5-5-|
 -3---3---5-5-5-5-5-5-5-5-3-3-3-3-3-3-3-3-5-5-5-5-5-5-5-5-|
 -1-----------------------1-1-1-1-1-1-1-1-3-3-3-3-3-3-3-3-|

riff 3 - play three times

|----------------------------------------------------------------------|
|-----8--------------8--------------10------------------13-------------|
|---9--9-10-9--9----9-9-10-9--9---11--11-12-11--11----14--14-15-14--14-|
|-10---------10---10--------10--12------------12----15------------15---|
|----------------------------------------------------------------------|
|----------------------------------------------------------------------|

outro

|-----------------------------------------------------
|-----------------------------------------------------
|-5-----------------------------------------5---5-7-5-
|-5---7-5-7-5-7-5-7-5-7-5-7-5-3-2-3-2-3-2-5-5-5-5-7-5-
|-3---7-5-7-5-7-5-7-5-7-5-7-5-3-2-3-2-3-2-5-3-5-3-5-3-
|-----5-3-5-3-5-3-5-3-5-3-5-3-1-0-1-0-1-0-3---3-------

 -------------------------------------------------------------------|
 -------------------------------------------------------------------|
 -------------------------7-5-7-5-7-5-10-8-10-8-10-8--5-8--9-12--14-|
 -7-5-7-5-7-5-7-5-7-5-7-5-7-5-7-5-7-5-10-8-10-8-10-8--5-8--9-12--14-|
 -7-5-7-5-7-5-7-5-7-5-7-5-5-3-5-3-5-3--8-6--8-6--8-6--3-6--7-10--12-|
 -5-3-5-3-5-3-5-3-5-3-5-3-------------------------------------------|

lyrics

you can't believe the things you've seen and read, 
the soviet threat, our pseudo enemy
what's scaring me? ou foreign policy
to make the world safe for business, call it democracy
our human nature, it's all the same, 
we spend our lives in pursuit of happiness
so stop the hate, open the iron gate
it's our destiny to make the cold war history
you think i give a shit? if you're a socialist, if you're a capitalist
we've all got to exist, on this planet with nowhere to run,
the millions of brainwashed must open their eyes, we are one
with us over here and them over there, barbed wire borders are going nowhere



NOFX albums
2003 War on Errorism
2000 Pump Up the Valuum
1997 So Long And Thanks For All The Shoes
1996 Heavy Petting Zoo
1995 I Heard They Suck Live!!
1994 Punk in Drublic
1993 The Longest Line
1993 White Trash, Two Heebs & A Bean
1991 Ribbed
1989 S & M Airlines
Ribbed tabs
01Green Corn tabbass tab
02The Moron Brothers tabbass tab
03Showerdays tabbass tab
04Food, Sex & Ewe tabbass tab
05Just The Flu tabbass tab
06El Lay tabbass tab
07New Boobs tabbass tab
08Cheese tabbass tab
09Where's My Slice tabbass tab
10Together On The Sand tabbass tab
11Nowhere tabbass tab
12Brain Constipation tabbass tab
13Gonoherpasyphlaids tabbass tab
14I Don't Want You Around tabbass tab
15The Malachi Crunch tabbass tab

 

1