Search tabs:
Browse artists: 0-9 | A | B | C | D | E | F | G | H | I | J | K | L | M | N | O | P | Q | R | S | T | U | V | W | X | Y | Z
/ NOFX / Ribbed (1991) / The Malachi Crunch guitar tab


Date: Sun, October 18 1997
From: Peter Ferragine (iginition@yesic.com)
Group: NOFX
Album: Ribbed 
Released: 1991 epitaph records
Track: 14
Title: the malachi crunch

pm - palm mute 


intro

|-------------------------------------------------|
|-------------------------------------------------|
|-------------------------------------------------|
|-------------------------------------------------|
|-4-4-7-4-4-6-4-4-7-4-6-4-4-4-7-4-4-6-4-4-7-4-6-4-|
|-------------------------------------------------|

|----------------------------------------------|
|----------------------------------------------|
|-6----6-8-9-----6-----6-8-9-6-8-9-6-8-9-6-8-9-|
|-6----6-8-9-----6-----6-8-9-6-8-9-6-8-9-6-8-9-|
|-4----4-6-7-----4-----4-6-7-4-6-7-4-6-7-4-6-7-|
|----------------------------------------------|

verse - play this three times

|---------------------------------------------------------|
|---------------------------------------------------------|
|---------------------------------6-8-9-6-8-9-6-8-9-6-8-9-|
|-7-7-7-7-7-7-7-7-9-9-9-9-9-9-9-9-6-8-9-6-8-9-6-8-9-6-8-9-|
|-7-7-7-7-7-7-7-7-9-9-9-9-9-9-9-9-4-6-7-4-6-7-4-6-7-4-6-7-|
|-5-5-5-5-5-5-5-5-7-7-7-7-7-7-7-7-------------------------|

then end it with...

|----------------------------------|
|----------------------------------|
|----------------------------------|
|-7-7-7-7-7-7-7-7-9-9-9-9-9-9-9-9--|
|-7-7-7-7-7-7-7-7-9-9-9-9-9-9-9-9--|
|-5-5-5-5-5-5-5-5-7-7-7-7-7-7-7-7--|

post verse

|--------------------------------------------------------------------|
|--------------------------------------------------------------------|
|-6-6-8-8-8-6---------6-6-8-8-8-6-------6----6-8-9-6-8-9-6-8-9-6-8-9-|
|-6-6-8-8-8-6-2-4-4-2-6-6-8-8-8-6-2--4--6----6-8-9-6-8-9-6-8-9-6-8-9-|
|-4-4-6-6-6-4-2-4-4-2-4-4-6-6-6-4-2--4--4----4-6-7-4-6-7-4-6-7-4-6-7-|
|-------------0-2-2-0-------------0--2-------------------------------|

verse 2 - played a few times with different rhythm, the only difference is
          palm muting.

|---------------------------------------------------------|
|---------------------------------------------------------|
|---------------6-6-6-6-9-8-8---------------6-6-6-6-9-8-8-|
|-7-7-7-6-6-2-2-6-6-6-6-9-8-8-7-7-7-6-6-4-4-6-6-6-6-9-8-8-|
|-7-7-7-6-6-4-4-4-4-4-4-7-6-6-7-7-7-6-6-4-4-4-4-4-4-7-6-6-|
|-5-5-5-4-4-2-2---------------5-5-5-4-4-2-2---------------|

bridge

guitar 1

|-------------------------------------------------|
|-------------------------------------------------|
|-------------------------------------------------|
|-------------------------------------------------|
|-4-4-7-4-4-6-4-4-7-4-6-4-4-4-7-4-4-6-4-4-7-4-6-4-|
|-------------------------------------------------|

guitar 2

pm_______________________________________________________________________|
|-------------------------------------------------------------------------
|-------------------------------------------------------------------------
|-6-6-6-6-6-6-6-6-6-------------------6-6-6-6-6-6-6-6-6-------------------
|-6-6-6-6-6-6-6-6-6-7-7-7-7-7-7-7-7-7-6-6-6-6-6-6-6-6-6-7-7-7-7-7-7-7-7-7-
|-4-4-4-4-4-4-4-4-4-7-7-7-7-7-7-7-7-7-4-4-4-4-4-4-4-4-4-7-7-7-7-7-7-7-7-7-
|-------------------5-5-5-5-5-5-5-5-5-------------------5-5-5-5-5-5-5-5-5-

 --------------------------------------------------|
 --------------------------------------------------|
 -6-----6-8-9-----9-8-9-6--6-8-9-6-8-9-6-8-9-6-8-9-|
 -6-----6-8-9-----9-8-9-6--6-8-9-6-8-9-6-8-9-6-8-9-|
 -4-----4-6-7-----7-6-7-4--4-6-7-4-6-7-4-6-7-4-6-7-|
 --------------------------------------------------|

outro

|---------------------------------------------------------------------------|
|---------------------------------------------------------------------------|
|-6-6-8-8-6---------6-6-8-8-6-------6-6-6-8-8-6---------6-6-8-8-8-6-----6---|
|-6-6-8-8-6-2-4-4-2-6-6-8-8-6-2-4---6-6-6-8-8-6-2-4-4-2-6-6-8-8-8-6-2-4-6---|
|-4-4-6-6-4-2-4-4-2-4-4-6-6-4-2-4---4-4-4-6-6-4-2-4-4-2-4-4-6-6-6-4-2-4-4---|
|-----------0-2-2-0-----------0-2---------------0-2-2-0-------------0-2-----|

lyrics

did you get that rush, that feeling, adrenalin pumping through your veins?
a lifeless body in the gutter, city streets are stained
how do you rationalize, what do you see in your reflection?
a kid just having fun, a soldiers bloodied boot impression
one for all and all for one, especially when it's ten to one
you don't care what you're doing, you know it sure is fun
if it happened to your mother, would you laugh so hard?
well, that was someones son or brother that you kicked so hard 
this time you went too far what's the matter, don't you feel alright?
do you feel remorse? or are the handcuffs on a little to tight?
now that your friends are gone, you've got no defence, no protection
5 or 6 times a day you recieve your hot beef injection
i hope everytime you're cornholed terror fills your mind
the one emotion you have inspiredone to many times



NOFX albums
2003 War on Errorism
2000 Pump Up the Valuum
1997 So Long And Thanks For All The Shoes
1996 Heavy Petting Zoo
1995 I Heard They Suck Live!!
1994 Punk in Drublic
1993 The Longest Line
1993 White Trash, Two Heebs & A Bean
1991 Ribbed
1989 S & M Airlines
Ribbed tabs
01Green Corn tabbass tab
02The Moron Brothers tabbass tab
03Showerdays tabbass tab
04Food, Sex & Ewe tabbass tab
05Just The Flu tabbass tab
06El Lay tabbass tab
07New Boobs tabbass tab
08Cheese tabbass tab
09Where's My Slice tabbass tab
10Together On The Sand tabbass tab
11Nowhere tabbass tab
12Brain Constipation tabbass tab
13Gonoherpasyphlaids tabbass tab
14I Don't Want You Around tabbass tab
15The Malachi Crunch tabbass tab

 

1