Search tabs:
Browse artists: 0-9 | A | B | C | D | E | F | G | H | I | J | K | L | M | N | O | P | Q | R | S | T | U | V | W | X | Y | Z
/ NOFX / Ribbed (1991) / Together On The Sand guitar tab


Date: Sat, October 18 1997
From: Peter Ferragine (iginition@yesic.com)
Group: NOFX
Album: Ribbed
Released: 1991 epitaph records
Track: 9
Title: together on the sand

x - scratch


intro

|-12-14-12-10-12-10-8-10-8-7-9-7-|
|-12-------10-------8------7-----|
|-12-------10-------8------7-----|
|--------------------------------|
|--------------------------------|
|--------------------------------|

verse 

|---------------------------------------------------------|
|-5-x-5-5-5-5-5-x-5-5-5-5-5-4-3-x-3-3-3-3-6-6-6-6-5-5-5-5-|
|-6-x-6-6-6-6-6-x-6-6-6-6-6-5-4-x-4-4-4-4-7-7-7-7-6-6-6-6-|
|-7-x-7-7-7-7-6-x-6-6-6-6-6-5-4-x-4-4-4-4-7-7-7-7-6-6-6-6-|
|-7-x-7-7-7-7-4-x-4-4-4-4-4-3-2-x-2-2-2-2-5-5-5-5-4-4-4-4-|
|---------------------------------------------------------|

outro

|-----------------------|
|-8-x-8-8-8-7-6-x-6-6-6-|
|-9-x-9-9-9-8-7-x-7-7-7-|
|-9-x-9-9-9-8-7-x-7-7-7-|
|-7-x-7-7-7-6-5-x-5-5-5-|
|-----------------------|

lyrics

together on the sand, we walked hand in hand, on the beach front
she smiled at me, as she tightly held my hand, i had my finger up her...
country music playing on the radio so i turned it off, 
we walked down to the water, as she grabbed on to my honker
a wave swept us away



NOFX albums
2003 War on Errorism
2000 Pump Up the Valuum
1997 So Long And Thanks For All The Shoes
1996 Heavy Petting Zoo
1995 I Heard They Suck Live!!
1994 Punk in Drublic
1993 The Longest Line
1993 White Trash, Two Heebs & A Bean
1991 Ribbed
1989 S & M Airlines
Ribbed tabs
01Green Corn tabbass tab
02The Moron Brothers tabbass tab
03Showerdays tabbass tab
04Food, Sex & Ewe tabbass tab
05Just The Flu tabbass tab
06El Lay tabbass tab
07New Boobs tabbass tab
08Cheese tabbass tab
09Where's My Slice tabbass tab
10Together On The Sand tabbass tab
11Nowhere tabbass tab
12Brain Constipation tabbass tab
13Gonoherpasyphlaids tabbass tab
14I Don't Want You Around tabbass tab
15The Malachi Crunch tabbass tab

 

1