Search tabs:
Browse artists: 0-9 | A | B | C | D | E | F | G | H | I | J | K | L | M | N | O | P | Q | R | S | T | U | V | W | X | Y | Z
/ NOFX / Ribbed (1991) / Where's My Slice guitar tab


Date: Sat, October 18 1997
From: Peter Ferragine (iginition@yesic.com)
Group: NOFX
Album: Ribbed
Released: 1991 epitaph records
Track: 8
Title: cheese/where's my slice?

x - scratch
pm - palm mute


cheese

verse

|-------------------------------------------------|
|-------------------------------------------------|
|-------------------------------------------------| play twice
|-7-7-x-x-x-x-7-7-7-7-7-7-3-3-x-x-3-3---5-5---4-4-|
|-7-7-x-x-x-x-7-7-7-7-7-7-3-3-x-x-3-3-3-----2-----|
|-5-5-x-x-x-x-5-5-5-5-5-5-1-1-x-x-1-1-------------|

then...

|-------------------------------------------|----------------|
|-------------------------------------------|----------------|
|--------------------------------------5-5--|-7----9-9--9-9--|
|-7-7-x-x-x-x-7-7-7-7-7-7-3-3-x-x-3-3--5-5--|-7----9-9--9-9--|
|-7-7-x-x-x-x-7-7-7-7-7-7-3-3-x-x-3-3--3-3--|-5----7-7--7-7--|
|-5-5-x-x-x-x-5-5-5-5-5-5-1-1-x-x-1-1-------|----------------|

where's my slice?

verse 2

|-----------------------------------------------------------------
|-----------------------------------------------------------------
|-9-9-9-9-9-9-9-9-----------------5-5-5-5-5-5-5-5-----------------
|-9-9-9-9-9-9-9-9-3-3-3-3-3-3-3-3-5-5-5-5-5-5-5-5-5-5-5-5-5-5-5-5-
|-7-7-7-7-7-7-7-7-3-3-3-3-3-3-3-3-3-3-3-3-3-3-3-3-5-5-5-5-5-5-5-5-
|-----------------1-1-1-1-1-1-1-1-----------------3-3-3-3-3-3-3-3-

 -----------------------------------------------------------------
 -----------------------------------------------------------------
 ---------------------------------5-5-5-5-5-5-5-5-----------------
 -3-3-3-3-3-3-3-3-5-5-5-5-5-5-5-5-5-5-5-5-5-5-5-5-3-3-3-3-3-3-3-3-
 -3-3-3-3-3-3-3-3-5-5-5-5-5-5-5-5-3-3-3-3-3-3-3-3-3-3-3-3-3-3-3-3-
 -1-1-1-1-1-1-1-1-3-3-3-3-3-3-3-3-----------------1-1-1-1-1-1-1-1-

                                pm___________________________________|
 --------------------------------------------------------------------|
 --------------------------------------------------------------------|
 --------------------------------------------------------------------|
 -5-5-5-5-5-5-5-5-3-3-3-3-3-3-3-3-5-5-5-5--5-5-5-5--5-5-5-5--5-5-5-5-|
 -5-5-5-5-5-5-5-5-3-3-3-3-3-3-3-3-5-5-5-5--5-5-5-5--5-5-5-5--5-5-5-5-|
 -3-3-3-3-3-3-3-3-1-1-1-1-1-1-1-1-3-3-3-3--3-3-3-3--3-3-3-3--3-3-3-3-|

chorus

|-------------------------------------------------|
|-------------------------------------------------|
|-5-5-5-5-5-5-5-5---------------------------------|
|-5-5-5-5-5-5-5-5-7-7-7-7-7-7-7-7-3-3-3-3-3-3-3-3-|
|-3-3-3-3-3-3-3-3-7-7-7-7-7-7-7-7-3-3-3-3-3-3-3-3-|
|-----------------5-5-5-5-5-5-5-5-1-1-1-1-1-1-1-1-|

bridge

|-----------------------------------------------------------------
|-----------------------------------------------------------------
|-5-5-5-5-7-7-7-7-4-4-4-4-5-5-5-5---------------------------------
|-5-5-5-5-7-7-7-7-4-4-4-4-5-5-5-5-5-5-5-5-5-5-5-5-7-7-7-7-7-7-7-7-
|-3-3-3-3-5-5-5-5-2-2-2-2-3-3-3-3-5-5-5-5-5-5-5-5-7-7-7-7-7-7-7-7-
|---------------------------------3-3-3-3-3-3-3-3-5-5-5-5-5-5-5-5-

 ---------------------------------|
 ---------------------------------|
 -5-5-5-5-5-5-5-5-7-7-7-7-7-7-7-7-|
 -5-5-5-5-5-5-5-5-7-7-7-7-7-7-7-7-|
 -3-3-3-3-3-3-3-3-5-5-5-5-5-5-5-5-|
 ---------------------------------|

chorus 2

|----------------------------------------------------------|
|----------------------------------------------------------|
|-5-5-5-5-5-5-5-5-9-9-9-9-9-9-9-9-10-10-10-10-10-10-10-10--|
|-5-5-5-5-5-5-5-5-9-9-9-9-9-9-9-9-10-10-10-10-10-10-10-10--|
|-3-3-3-3-3-3-3-3-7-7-7-7-7-7-7-7--8--8--8--8--8--8--8--8--|
|----------------------------------------------------------|

riff

|----------------------|
|----------------------|
|----------------------|
|-3-2----5-4-0--7-6----|
|-----3-------------7--|
|----------------------|

verse 3

|-------------------------------------------------------------------------
|-------------------------------------------------------------------------
|-11-11-11-11-11-11-11-11-----------------7-7-7-7-7-7-7-7-----------------
|-11-11-11-11-11-11-11-11-5-5-5-5-5-5-5-5-7-7-7-7-7-7-7-7-7-7-7-7-7-7-7-7-
|--9--9--9--9--9--9--9--9-5-5-5-5-5-5-5-5-5-5-5-5-5-5-5-5-7-7-7-7-7-7-7-7-
|-------------------------3-3-3-3-3-3-3-3-----------------5-5-5-5-5-5-5-5-

 -----------------------------------------------------------------
 -----------------------------------------------------------------
 ---------------------------------7-7-7-7-7-7-7-7-----------------
 -5-5-5-5-5-5-5-5-7-7-7-7-7-7-7-7-7-7-7-7-7-7-7-7-5-5-5-5-5-5-5-5-
 -5-5-5-5-5-5-5-5-7-7-7-7-7-7-7-7-5-5-5-5-5-5-5-5-5-5-5-5-5-5-5-5-
 -3-3-3-3-3-3-3-3-5-5-5-5-5-5-5-5-----------------3-3-3-3-3-3-3-3-

                                pm_____________________________________|
 ----------------------------------------------------------------------|
 ----------------------------------------------------------------------|
 ----------------------------------------------------------------------|
 -7-7-7-7-7-7-7-7-5-5-5-5-5-5-5-5--7-7-7-7--7-7-7-7--7-7-7-7--7-7-7-7--|
 -7-7-7-7-7-7-7-7-5-5-5-5-5-5-5-5--7-7-7-7--7-7-7-7--7-7-7-7--7-7-7-7--|
 -5-5-5-5-5-5-5-5-3-3-3-3-3-3-3-3--5-5-5-5--5-5-5-5--5-5-5-5--5-5-5-5--|

chorus 3

|--------------------------------------------------------------------
|--------------------------------------------------------------------
|-7-7-7-7-7-7-7-7-----------------------------------7-7-7-7-7-7-7-7--
|-7-7-7-7-7-7-7-7-7-7-7-7-7-7-7-7--5-5-5-5-5-5-5-5--7-7-7-7-7-7-7-7--
|-5-5-5-5-5-5-5-5-7-7-7-7-7-7-7-7--5-5-5-5-5-5-5-5--5-5-5-5-5-5-5-5--
|-----------------5-5-5-5-5-5-5-5--3-3-3-3-3-3-3-3-------------------

 -----------------------------------------------------------------|
 -----------------------------------------------------------------|
 -7-7-7-7-7-7-7-7-11-11-11-11-11-11-11-11-12-12-12-12-12-12-12-12-|
 -7-7-7-7-7-7-7-7-11-11-11-11-11-11-11-11-12-12-12-12-12-12-12-12-|
 -5-5-5-5-5-5-5-5--9--9--9--9--9--9--9--9-10-10-10-10-10-10-10-10-|
 -----------------------------------------------------------------|

outro

|---------------------------------------------------------------------
|---------------------------------------------------------------------
|-7-7-7-7-7-7-7-7---11-11-11-11-11-11-11-11---12-12-12-12-12-12-12-12-
|-7-7-7-7-7-7-7-7---11-11-11-11-11-11-11-11---12-12-12-12-12-12-12-12-
|-5-5-5-5-5-5-5-5----9--9--9--9--9--9--9--9---10-10-10-10-10-10-10-10-
|---------------------------------------------------------------------

 -----------------------|
 -----------------------|
 -----------------------|
 -----------------------|
 --5-4----7-6----9-8----|
 ------5------7------8--|

lyrics

cheese

it's been a long time, now it's time to get your bubble burst
things are bad enough in this world, why do you have to make them worse?
day after day you just gotta get it

where's my slice?

so sick and tired of your bitching and complaining
so long you've been oppressedwhile others lives are gaining
want reparations, you're reedy and deserving
can't understand why some are served while you're doing the serving
anything but responsibility
where's my slice? i want more than equal rights, i want everything for free!
you waste your time concerned with what others are earning
you want a revolution to start the tables turning
a demonstration to make a better nation, 
we'll spend the day protesting all the problems that we're facing
anything but face reality, where's my slice...
your brilliant theory how the world owes you a living
you'll take away from others, the things they should be giving
they own the pie and you want your share, whoever told you life was fair?
you were dealt your hand - now play it, where's my slice...
 


NOFX albums
2003 War on Errorism
2000 Pump Up the Valuum
1997 So Long And Thanks For All The Shoes
1996 Heavy Petting Zoo
1995 I Heard They Suck Live!!
1994 Punk in Drublic
1993 The Longest Line
1993 White Trash, Two Heebs & A Bean
1991 Ribbed
1989 S & M Airlines
Ribbed tabs
01Green Corn tabbass tab
02The Moron Brothers tabbass tab
03Showerdays tabbass tab
04Food, Sex & Ewe tabbass tab
05Just The Flu tabbass tab
06El Lay tabbass tab
07New Boobs tabbass tab
08Cheese tabbass tab
09Where's My Slice tabbass tab
10Together On The Sand tabbass tab
11Nowhere tabbass tab
12Brain Constipation tabbass tab
13Gonoherpasyphlaids tabbass tab
14I Don't Want You Around tabbass tab
15The Malachi Crunch tabbass tab

 

1