Search tabs:
Browse artists: 0-9 | A | B | C | D | E | F | G | H | I | J | K | L | M | N | O | P | Q | R | S | T | U | V | W | X | Y | Z
/ NOFX / S & M Airlines (1989) / Day To Daze guitar tab


Date: Tues, September 30 1997
From: Peter Ferragine (iginition@yesic.com)
Group: NOFX
Album: S & M Airlines
Released: 1989 epitaph records
Track: 1
Title: day to daze

/ \ - slide
h - hammer on


intro - riff

|-------------|
|-------------|
|-------------|
|-------------|
|-----------3-|
|-5-3-0-3-5---|

intro 2

|----------------------------------------------------------------------|
|----------------------------------------------------------------------|
|-14-12-14-12-14/17-14-12-14-12-14/17-14-12-14-12-14/17-14/17/19\14/17-|
|-14-12-14-12-14/17-14-12-14-12-14/17-14-12-14-12-14/17-14/17/19\14/17-|
|-12-10-12-10-12/15-12-10-12-10-12/15-12-10-12-10-12/15-12/15/17\12/15-|
|----------------------------------------------------------------------|

verse

|-----------------------------------------------------------------|
|-----------------------------------------------------------------|
|---------------------------------5-5-5-5-5-5-5-5-----------------|
|-7-7-7-7-7-7-7-7-3-3-3-3-3-3-3-3-5-5-5-5-5-5-5-5-5-5-5-5-5-5-5-5-|
|-7-7-7-7-7-7-7-7-3-3-3-3-3-3-3-3-3-3-3-3-3-3-3-3-5-5-5-5-5-5-5-5-|
|-5-5-5-5-5-5-5-5-1-1-1-1-1-1-1-1-----------------3-3-3-3-3-3-3-3-|

|-----------------------------------------------------------------|
|-----------------------------------------------------------------|
|-5-5-5-5-5-5-5-5-------------------------------------------------|
|-5-5-5-5-5-5-5-5-7-7-7-7-7-7-7-7-3-3-3-3-3-3-3-3-5-5-5-5-5-5-5-5-|
|-3-3-3-3-3-3-3-3-7-7-7-7-7-7-7-7-3-3-3-3-3-3-3-3-5-5-5-5-5-5-5-5-|
|-----------------5-5-5-5-5-5-5-5-1-1-1-1-1-1-1-1-3-3-3-3-3-3-3-3-|

chorus

|---------------------------|
|---------------------------|
|-5-5-2--2-2-2--------------|
|-5-5-2--2-2-2-5-5-3--3-3-3-|
|-3-3-0--0-0-0-5-5-3--3-3-3-|
|--------------3-3-1--1-1-1-|

outro

|------------------------------------------|
|------------------------------------------|
|------------------------------------------|
|------------------------------------------|
|--------------------3---------------8-7-3-|
|-5-5-5-5-3h5-5--5-5---5-5-5-5-3h5-5-------|

lyrics 

i trusted you at least i thought i could
i tried to believe when you said 
i got a better job i can pay you back 
real soon, no! i don't do those drugs no more
i know my luck has changed my lifestyle
has rearranged i'm on my feet
you'll never change your ways
living from day to daze
why don't you fade away
i've heard all this before
when you were sleeping on my floor
you said only for a day 
but as those three weeks passed
my patience didn't last nor my food




NOFX albums
2003 War on Errorism
2000 Pump Up the Valuum
1997 So Long And Thanks For All The Shoes
1996 Heavy Petting Zoo
1995 I Heard They Suck Live!!
1994 Punk in Drublic
1993 The Longest Line
1993 White Trash, Two Heebs & A Bean
1991 Ribbed
1989 S & M Airlines
S & M Airlines tabs
01Day To Daze tabbass tab
02Five Feet Under tabbass tab
03Professional Crastination tabbass tab
04Mean People Suck tabbass tab
05Vanilla Sex tabbass tab
06S & M Airlines tabbass tab
07Drug Free America tabbass tab
08Life O'Riley tabbass tab
09You Drink You Drive You Spill tabbass tab
10Scream For Change tabbass tab
11Jaundiced Eye tabbass tab
12Go Your Own Way tabbass tab

 

1