Search tabs:
Browse artists: 0-9 | A | B | C | D | E | F | G | H | I | J | K | L | M | N | O | P | Q | R | S | T | U | V | W | X | Y | Z
/ NOFX / S & M Airlines (1989) / Five Feet Under guitar tab


Date: Sat, October 4 1997
From: Peter Ferragine (iginition@yesic.com)
Group: NOFX
Album: S & M Airlines
Released: 1989 epitaph records
Track: 2 
Title: five feet under

h - hammer on
p - pull off


intro

|--------------------------------------------------------------------|
|--------------------------------------------------------------------|
|--------------------------------------------------------------------|
|-7-7-7-7-----------5-5-5-5------------3-3-3-3-5-4-2-2-2-2-----------|
|-7-7-7-7-5h7p5h7p5-5-5-5-5-3h5p3h5p3--3-3-3-3-5-4-2-2-2-2-2h3p2h3p2-|
|-5-5-5-5-----------3-3-3-3------------1-1-1-1-3-2-0-0-0-0-----------|

|-------------------------------------------------------------------|
|-------------------------------------------------------------------|
|---------------------------------------------------------------4-5-|
|-7-7-7-7-----------5-5-5-5-----5-5-3-3-3-3-5-4-2-2-2-2-2-2-2-2-4-5-|
|-7-7-7-7-5h7p5h7p5-5-5-5-5-3h5-----3-3-3-3-5-4-2-2-2-2-2-2-2-2-2-3-|
|-5-5-5-5-----------3-3-3-3---------1-1-1-1-3-2-0-0-0-0-0-0-0-0-----|

verse

|-------------------------------------------------------------------|
|-------------------------------------------------------------------|
|---------------------------------------------------------------4-5-|
|-7-7-7-7-7-7-7-7-5-5-5-5-5-5-5-5-3-3-3-3-3-3-3-3-2-2-2-2-2-2-2-4-5-|
|-7-7-7-7-7-7-7-7-5-5-5-5-5-5-5-5-3-3-3-3-3-3-3-3-2-2-2-2-2-2-2-2-3-|
|-5-5-5-5-5-5-5-5-3-3-3-3-3-3-3-3-1-1-1-1-1-1-1-1-0-0-0-0-0-0-0-----|

chorus

|-----------------------------------------------|
|-----------------------------------------------|
|---------------4-7-7-7-7-10-10-10-10-------9-9-|
|-7-7-7-7-5-2-2-4-7-7-7-7-10-10-10-10-10-10-9-9-|
|-7-7-7-7-5-2-2-2-5-5-5-5--8--8--8--8-10-10-7-7-|
|-5-5-5-5-3-0-0------------------------8--8-----|

|---------------------|
|---------------------|
|-9-9-10-10-----------|
|-9-9-10-10-10-10-9-9-|
|-7-7--8--8-10-10-9-9-|
|------------8--8-7-7-|

lyrics

five feet under, he's got one foot in the grave
would you look at him i think he's lost it
i don't think that he can be saved
he's got a down payment on his tombstone
he's not alone his whole life has been out
on a limb, just look at him watch
him get smashed and race bikes so fast
just don't laugh, what will it say on his 
epitaph
here he lies may he rest in peace
hung on to life by the skin of his teeth
pushing his luck thru the bottle he drinks
he's got a date with his maker and he
doesn't want to be late make no mistake
he's a good friend so why might his life
have to end, my friend i don't want to
see you dead
i don't want to see him dead 
i don't want to see him dead
i don't want to see him dead


NOFX albums
2003 War on Errorism
2000 Pump Up the Valuum
1997 So Long And Thanks For All The Shoes
1996 Heavy Petting Zoo
1995 I Heard They Suck Live!!
1994 Punk in Drublic
1993 The Longest Line
1993 White Trash, Two Heebs & A Bean
1991 Ribbed
1989 S & M Airlines
S & M Airlines tabs
01Day To Daze tabbass tab
02Five Feet Under tabbass tab
03Professional Crastination tabbass tab
04Mean People Suck tabbass tab
05Vanilla Sex tabbass tab
06S & M Airlines tabbass tab
07Drug Free America tabbass tab
08Life O'Riley tabbass tab
09You Drink You Drive You Spill tabbass tab
10Scream For Change tabbass tab
11Jaundiced Eye tabbass tab
12Go Your Own Way tabbass tab

 

1