Search tabs:
Browse artists: 0-9 | A | B | C | D | E | F | G | H | I | J | K | L | M | N | O | P | Q | R | S | T | U | V | W | X | Y | Z
/ NOFX / S & M Airlines (1989) / Go Your Own Way guitar tab


Date: Sun, October 5 1997
From: Peter Ferragine (iginition@yesic.com)
Group: NOFX
Album: S & M Airlines
Released: 1989 epitaph records
Track: 12 
Title: go your own way

x - scratch


intro/verse

|----------------------------------------------------------
|----------------------------------------------------------
|-9-9-x-x-9-9-x-x-9-9-x-x-9-9------------------------------
|-9-9-x-x-9-9-x-x-9-9-x-x-9-9--9-9-x-x-9-9-x-x-9-9-x-x-9-9-
|-7-7-x-x-7-7-x-x-7-7-x-x-7-7--9-9-x-x-9-9-x-x-9-9-x-x-9-9-
|------------------------------7-7-x-x-7-7-x-x-7-7-x-x-7-7-

 ----------------------------------------------------------|
 ----------------------------------------------------------|
 ------------------------------9-9-x-x-9-9-x-x-9-9-x-x-9-9-|
 -7-7-x-x-7-7-x-x-7-7-x-x-7-7--9-9-x-x-9-9-x-x-9-9-x-x-9-9-|
 -7-7-x-x-7-7-x-x-7-7-x-x-7-7--7-7-x-x-7-7-x-x-7-7-x-x-7-7-|
 -5-5-x-x-5-5-x-x-5-5-x-x-5-5------------------------------|

chorus

|-------------------------------------------------------------------------|
|-------------------------------------------------------------------------|
|-------------------------------------------------------------------------|
|-11-11-11-11-11-11-11-11-7-7-7-7-7-7-7-7-9-9-9-9-9-9-9-9-9-9-9-9-9-9-9-9-|
|-11-11-11-11-11-11-11-11-7-7-7-7-7-7-7-7-9-9-9-9-9-9-9-9-9-9-9-9-9-9-9-9-|
|--9--9--9--9--9--9--9--9-5-5-5-5-5-5-5-5-7-7-7-7-7-7-7-7-7-7-7-7-7-7-7-7-|

lyrics

loving you isn't the right thing to do
how can i change things that i feel
if i could baby i would give you my world 
but how can i when you won't take them from me
you can go your own way, go your own way
you can call it another lonely day, another lonely day
you can go your own way, go your own way
tell me why everything turned 'round
backing up, shaking that's all you wanna do
if i could baby i'd give you my socks
open up, everything's waiting for you
you can go your own way, go your own way
you can call it another lonely day, another lonely day
you can go your own way, go your own way
you can go your own way, go your own way
you can call it another lonely day, another lonely day
you can go your own way, go your own way



NOFX albums
2003 War on Errorism
2000 Pump Up the Valuum
1997 So Long And Thanks For All The Shoes
1996 Heavy Petting Zoo
1995 I Heard They Suck Live!!
1994 Punk in Drublic
1993 The Longest Line
1993 White Trash, Two Heebs & A Bean
1991 Ribbed
1989 S & M Airlines
S & M Airlines tabs
01Day To Daze tabbass tab
02Five Feet Under tabbass tab
03Professional Crastination tabbass tab
04Mean People Suck tabbass tab
05Vanilla Sex tabbass tab
06S & M Airlines tabbass tab
07Drug Free America tabbass tab
08Life O'Riley tabbass tab
09You Drink You Drive You Spill tabbass tab
10Scream For Change tabbass tab
11Jaundiced Eye tabbass tab
12Go Your Own Way tabbass tab

 

1