Search tabs:
Browse artists: 0-9 | A | B | C | D | E | F | G | H | I | J | K | L | M | N | O | P | Q | R | S | T | U | V | W | X | Y | Z
/ NOFX / S & M Airlines (1989) / Mean People Suck guitar tab


Date: Sat, October 4 1997
From: Peter Ferragine (iginition@yesic.com)
Group: NOFX
Album: S & M Airlines
Released: 1989 epitaph records
Track: 4
Title: mean people suck

h - hammer on
p - pull off


intro

|------------------------------------------------------------------|
|------------------------------------------------------------------|
|-9-7-7---9-7-7--------------------7-9-7---------------------7-9-7-|
|-9-7---7-9-7---7--9-7h8-----9-7-9---------9p8p7-7-----9-7h9-------|
|-7-5-----7-5------------9-7-----------------------9-7-------------|
|----------------------------------------5-------------------------|

main riff

|-------------------------------|----------------------------------------|
|-------------------------------|----------------------------------------|
|-12-12-12-12-12-12-12-12-12-12-|--9-12-9-12-14-12-9-9-7-9-12-9-12-14-12-|
|-12-12-12-12-12-12-12-12-12-12-|--9-12-9-12-14-12-9-9-7-9-12-9-12-14-12-|
|-10-10-10-10-10-10-10-10-10-10-|--7-10-7-10-12-10-7-7-5-7-10-7-10-12-10-|
|-------------------------------|----------------------------------------|

bridge

|-----------------------------------------------------------------|
|-----------------------------------------------------------------|
|--------------------------12-12-12-12-12-12-12-12-12-12-12-12-12-|
|-2-6-7-9-7-6-2-6-7-9-7-6--12-12-12-12-12-12-12-12-12-12-12-12-12-|
|-2-6-7-9-7-6-2-6-7-9-7-6--10-10-10-10-10-10-10-10-10-10-10-10-10-|
|-0-4-5-7-5-4-0-4-5-7-5-4-----------------------------------------|

bridge 2

|-----------------------------------------|
|-----------------------------------------|
|-------------12-12-------------9-9-9-9-9-|
|-2-6-7-9-7-6-12-12-2-6-7-9-7-6-9-9-9-9-9-|
|-2-6-7-9-7-6-10-10-2-6-7-9-7-6-7-7-7-7-7-|
|-0-4-5-7-5-4-------0-4-5-7-5-4-----------|

lyrics

people suck, people suck, mean people suck, people suck
suck, they suck, they suck, they suck
people suck, people suck, mean people suck, people suck
suck, they suck, they suck, they suck



NOFX albums
2003 War on Errorism
2000 Pump Up the Valuum
1997 So Long And Thanks For All The Shoes
1996 Heavy Petting Zoo
1995 I Heard They Suck Live!!
1994 Punk in Drublic
1993 The Longest Line
1993 White Trash, Two Heebs & A Bean
1991 Ribbed
1989 S & M Airlines
S & M Airlines tabs
01Day To Daze tabbass tab
02Five Feet Under tabbass tab
03Professional Crastination tabbass tab
04Mean People Suck tabbass tab
05Vanilla Sex tabbass tab
06S & M Airlines tabbass tab
07Drug Free America tabbass tab
08Life O'Riley tabbass tab
09You Drink You Drive You Spill tabbass tab
10Scream For Change tabbass tab
11Jaundiced Eye tabbass tab
12Go Your Own Way tabbass tab

 

1