Search tabs:
Browse artists: 0-9 | A | B | C | D | E | F | G | H | I | J | K | L | M | N | O | P | Q | R | S | T | U | V | W | X | Y | Z
/ NOFX / S & M Airlines (1989) / Scream For Change guitar tab


Date: Sun, October 5 1997
From: Peter Ferragine (iginition@yesic.com)
Group: NOFX
Album: S & M Airlines
Released: 1989 epitaph records
Track: 10
Title: scream for change

x - scratch
pm - palm mute


intro

|-------------------|
|-------------------|
|-9---5--4----------|
|-9---5--4--------2-|
|-7---3--2--------2-|
|-----------3-2-0-0-|

|---------------------------------|
|---------------------------------|
|---------9-7-5-x-4-x-5-x-x-------|
|-x-x-x-2-9-7-5-x-4-x-5-x-x-------|
|-x-x-x-2-7-5-3-x-2-x-3-x-x-------|
|-x-x-x-0-------------------3-2-0-|

verse

pm________________________________________________________________|
|-----------------------------------------------------------------|
|-----------------------------------------------------------------|
|-----------------------------------------------------------------|
|-----------------3-3-3-3-------------------------3-3-3-3---------|
|-2-2-2-2-5-5-5-5-1-1-1-1-3-3-3-3-2-2-2-2-5-5-5-5-1-1-1-1-3-3-3-3-|
|-0-0-0-0-3-3-3-3---------1-1-1-1-0-0-0-0-3-3-3-3---------1-1-1-1-|

screaminforchange...

|---------------------------------------------------------------------|
|---------------------------------------------------------------------|
|---------------------------------------------------------------------|
|-9-11-12-11-12-14-16-9-11-12-11-9-11-12-11-9-11-12-11-11-12-14-16-19-|
|-7--9-10--9-10-12-14-7--9-10--9-7--9-10--9-7--9-10--9--9-10-12-14-17-|
|---------------------------------------------------------------------|

lyrics

hey mister, can you spare some change?
why? why? what do you want from me? are you hungry?
uh, no i'm not hungry i'm just wonderin' if you can spare a quarter or a dime
ohhhhh, the time? it's about 3:30
uh, no! not the time, i need a nickle or a dollar my car's broke
screaming for change, screaming for change, screaming, screaming for change
screaming for change, screaming for change, screaming, screaming for change
lady can you spare any change?
hey lady, can you spare a quarter?
i said lady can you spare any change?
hey get away from me, you're filthy go away
i said lady can you spare any change?
well how 'bout givin' me one of those cigarettes?
i said lady can you spare any change?
no, change, no, change, change, change, nooooooooooooooo!
screaming for change, screaming, screaming, screaming for change
screaming for change, screaming for change, screaming for change



NOFX albums
2003 War on Errorism
2000 Pump Up the Valuum
1997 So Long And Thanks For All The Shoes
1996 Heavy Petting Zoo
1995 I Heard They Suck Live!!
1994 Punk in Drublic
1993 The Longest Line
1993 White Trash, Two Heebs & A Bean
1991 Ribbed
1989 S & M Airlines
S & M Airlines tabs
01Day To Daze tabbass tab
02Five Feet Under tabbass tab
03Professional Crastination tabbass tab
04Mean People Suck tabbass tab
05Vanilla Sex tabbass tab
06S & M Airlines tabbass tab
07Drug Free America tabbass tab
08Life O'Riley tabbass tab
09You Drink You Drive You Spill tabbass tab
10Scream For Change tabbass tab
11Jaundiced Eye tabbass tab
12Go Your Own Way tabbass tab

 

1