Search tabs:
Browse artists: 0-9 | A | B | C | D | E | F | G | H | I | J | K | L | M | N | O | P | Q | R | S | T | U | V | W | X | Y | Z
/ NOFX / S & M Airlines (1989) / You Drink You Drive You Spill guitar tab


Date: Tues, September 30 1997
From: Peter Ferragine (iginition@yesic.com)
Group: NOFX
Album: S & M Airlines
Released: 1989 epitaph records
Track: 9
Title: you drink you drive you spill

: - let ring


intro

|------------------------|
|------------------------|
|-----5:--7-9-12-14-9-9--|
|-7:--5:--7-9-12-14-9-9--|
|-7:--3:--5-7-10-12-7-7--|
|-5:---------------------|

verse

|----------------------------------|
|----------------------------------|
|---------5-5-5-5------------------|
|-7-7-7-7-5-5-5-5-3-3-3-3-5-5-5-5--|
|-7-7-7-7-3-3-3-3-3-3-3-3-5-5-5-5--|
|-5-5-5-5---------1-1-1-1-3-3-3-3--|


chorus

|-----------------------------------------------------
|-----------------------------------------------------
|-----------------------------------------------------
|-3-3-3-5-5-5-7-7-7-7-7-7-7-3-3-3-5-5-5-7-7-7-7-7-7-7-
|-3-3-3-5-5-5-7-7-7-7-7-7-7-3-3-3-5-5-5-7-7-7-7-7-7-7-
|-1-1-1-3-3-3-5-5-5-5-5-5-5-1-1-1-3-3-3-5-5-5-5-5-5-5-

|-------------------------
|-------------------------
|-------------5-5-5-------
|-3-3-3-5-5-5-5-5-5-9-9-9-
|-3-3-3-5-5-5-3-3-3-9-9-9-
|-1-1-1-3-3-3-------7-7-7-

|----------------------------------------------------------
|----------------------------------------------------------
|---------------5-5-5-5-5-5-5----------------5-5-5-5-5-5-5-
|-3-3-3-5-5-5---5-5-5-5-5-5-5--3-3-3-5-5-5---5-5-5-5-5-5-5-
|-3-3-3-5-5-5---3-3-3-3-3-3-3--3-3-3-5-5-5---3-3-3-3-3-3-3-
|-1-1-1-3-3-3------------------1-1-3-3-3-3-----------------

|-------------------------------------------------|
|-------------------------------------------------|
|---------------5-5-5-5-5-5-5-5--5-5-5-5-4-4-4-4--|
|-3-3-3-5-5-5---5-5-5-5-5-5-5-5--5-5-5-5-4-4-4-4--|
|-3-3-3-5-5-5---3-3-3-3-3-3-3-3--3-3-3-3-2-2-2-2--|
|-1-1-1-3-3-3-------------------------------------|

lyrics

i say don't drink and drive you might spill your drink
before you get behind that wheel, just stop and think
you can take your chances but there's so much to lose
another bumpy road, there's so much wasted booze
i'm not so worried about how many i kill
i'm much more concerned with how much beer i spill
35% of accidents are caused by pixilated
the other 65% are not alcohol related
what does this tell us about the drunk drivers
they seem to have a better record then the sober team


NOFX albums
2003 War on Errorism
2000 Pump Up the Valuum
1997 So Long And Thanks For All The Shoes
1996 Heavy Petting Zoo
1995 I Heard They Suck Live!!
1994 Punk in Drublic
1993 The Longest Line
1993 White Trash, Two Heebs & A Bean
1991 Ribbed
1989 S & M Airlines
S & M Airlines tabs
01Day To Daze tabbass tab
02Five Feet Under tabbass tab
03Professional Crastination tabbass tab
04Mean People Suck tabbass tab
05Vanilla Sex tabbass tab
06S & M Airlines tabbass tab
07Drug Free America tabbass tab
08Life O'Riley tabbass tab
09You Drink You Drive You Spill tabbass tab
10Scream For Change tabbass tab
11Jaundiced Eye tabbass tab
12Go Your Own Way tabbass tab

 

1