Search tabs:
Browse artists: 0-9 | A | B | C | D | E | F | G | H | I | J | K | L | M | N | O | P | Q | R | S | T | U | V | W | X | Y | Z
/ NOFX / So Long And Thanks For All The Shoes (1997) / Champs Elysees guitar tab


Date: Sat, November 22 1997
From: Peter Ferragine (pferragine@interhop.net)
Group: NOFX 
Album: so long and thanks for all the shoes
Released: 1997 epitaph records
Track: 9
Title: champs elysees

x - scratch
: - let ring


intro

guitar 1

|-----------------------------------------------------------------|
|-----------------------------------------------------------------|
|-5-x-x-5-5-5-5--10-x-x-10-10-10-10--7-x-x-7-7-7-7--7-x-x-7-7-7-7-|
|-5-x-x-5-5-5-5--10-x-x-10-10-10-10--7-x-x-7-7-7-7--7-x-x-7-7-7-7-|
|-3-x-x-3-3-3-3---8-x-x--8--8--8--8--5-x-x-5-5-5-5--5-x-x-5-5-5-5-|
|-----------------------------------------------------------------|

guitar 2

|----------------------------------------------------------------------|
|----------------------------------------------------------------------|
|----------------------------------------------------------------------|
|-10:--9:--7:--5:--10-10-10-10-10-10-9-9-9-9-9-9-7-7-7-7-7-7-7-7-7-7-5-|
|----------------------------------------------------------------------|
|----------------------------------------------------------------------|

pre-verse

|------------------|
|------------------|
|-5:--5:--------5--|
|-5:--5:--7-7-9-5--|
|-3:--3:--7-7-9-3--|
|---------5-5-7----|

chorus

|-------------------------------------------------------------------------
|-------------------------------------------------------------------------
|-5-5-5-5---------------------------------------------------------5-5-5-5-
|-5-5-5-5-5-5-5-5-7-7-7-7-5-5-5-5-3-3-3-3-2-2-2-2-3-3-3-3-5-5-5-5-5-5-5-5-
|-3-3-3-3-5-5-5-5-7-7-7-7-5-5-5-5-3-3-3-3-2-2-2-2-3-3-3-3-5-5-5-5-3-3-3-3-
|---------3-3-3-3-5-5-5-5-3-3-3-3-1-1-1-1-0-0-0-0-1-1-1-1-3-3-3-3---------

 -------------------------------------------------|
 -------------------------------------------------|
 ---------5-5-5-5-5-5-5-5---------5-5-5-5-------5-|
 -5-5-5-5-5-5-5-5-5-5-5-5-5-5-5-5-5-5-5-5-7-7-9-5-|
 -5-5-5-5-3-3-3-3-3-3-3-3-5-5-5-5-3-3-3-3-7-7-9-3-|
 -3-3-3-3-----------------3-3-3-3---------5-5-7---|

bridge

|------------------------------|
|------------------------------|
|------------------------5---5-|
|-3-3-5-5-10-9-7-3-3-5-5-5-5-5-|
|-3-3-5-5-10-9-7-3-3-5-5-3-5-3-|
|-1-1-3-3--8-7-5-1-1-3-3---3---|

lyrics

you know french? well someone did cause they sent me the lyrics
and here they are...

Je m'baladais sur l'avenue
Le coeur ouvert à l'inconnu
J'avais envie de dire bonjour à n'importe qui
N'importe qui et ce fut toi
Je t'ai dit n'importe quoi
Il suffisait de te parler
Pour t'apprivoiser

Aux Champs Élysées
Aux Champs Élysées
Au soleil ou sous la pluie
À midi ou à minuit
Il y a tout ce que vous voulez
Aux Champs Élysées

Tu m'as dit j'ai rendez-vous
Dans un sous-sol avec des fous
Qui vivent la guitare à la main
Du soir au matin
Alors je t'ai accompagnée
On a chanté on a dansé
Et on a même pas pensé
À s'embrasser

Aux Champs Élysées
Aux Champs Élysées
Au soleil ou sous la pluie
À midi ou à minuit
Il y a tout ce que vous voulez
Aux Champs Élysées

Aux Champs Élysées
Aux Champs Élysées
Au soleil ou sous la pluie
À midi ou à minuit
Il y a tout ce que vous voulez
Aux Champs Élysées

Thanks to "Dark Vader" for sending me these lyrics, or else they 
wouldn't be up!



NOFX albums
2003 War on Errorism
2000 Pump Up the Valuum
1997 So Long And Thanks For All The Shoes
1996 Heavy Petting Zoo
1995 I Heard They Suck Live!!
1994 Punk in Drublic
1993 The Longest Line
1993 White Trash, Two Heebs & A Bean
1991 Ribbed
1989 S & M Airlines
So Long And Thanks For All The Shoes tabs
01It's My Job To Keep Punk Rock Elite tabbass tab
02Kids Of The K-Hole tabbass tab
03Murder The Government tabbass tab
04Monosyllabic Girl tabbass tab
05180 Degrees tabbass tab
06All His Suits Are Torn tabbass tab
07All Outta Angst tabbass tab
08I'm Telling Tim tabbass tab
09Champs Elysees tabbass tab
10Dad's Bad News tabbass tab
11Kill Rock Stars tabbass tab
12Eat The Meek tabbass tab
13The Desperation's Gone tabbass tab
14Flossing A Dead Horse tabbass tab
15Quart In Session tabbass tab
16Falling In Love tabbass tab

 

1