Search tabs:
Browse artists: 0-9 | A | B | C | D | E | F | G | H | I | J | K | L | M | N | O | P | Q | R | S | T | U | V | W | X | Y | Z
/ NOFX / So Long And Thanks For All The Shoes (1997) / I'm Telling Tim guitar tab


Date: Sat, November 22 1997
From: Peter Ferragine (iginition@yesic.com)
Group: NOFX 
Album: so long and thanks for all the shoes
Released: 1997 epitaph records
Track: 8
Title: i'm telling tim


intro

|-----------------|-------------------------|
|-----------------|-------------------------|
|-------------5-5-|-9--9--9--9--12--12--10--|
|-7-7-5-5-3-3-5-5-|-------------------------|
|-7-7-5-5-3-3-3-3-|-------------------------|
|-5-5-3-3-1-1-----|-------------------------|

verse

|------------------------------------------------------------------------
|------------------------------------------------------------------------
|-5--10--5-5-5-5-5-5-5-5-------------------------------------------------
|-5--10--5-5-5-5-5-5-5-5-7-7-7-7-7-7-7-7-5-5-5-5-5-5-5-5-3-3-3-3-3-3-3-3-
|-3---8--3-3-3-3-3-3-3-3-7-7-7-7-7-7-7-7-5-5-5-5-5-5-5-5-3-3-3-3-3-3-3-3-
|------------------------5-5-5-5-5-5-5-5-3-3-3-3-3-3-3-3-1-1-1-1-1-1-1-1-

 -------------------------------------------------------------------------
 -------------------------------------------------------------------------
 -5-5-5-5-5-5-5-5-10-10-10-10-10-10-10-10-5-5-5-5-5-5-5-5-----------------
 -5-5-5-5-5-5-5-5-10-10-10-10-10-10-10-10-5-5-5-5-5-5-5-5-7-7-7-7-7-7-7-7-
 -3-3-3-3-3-3-3-3--8--8--8--8--8--8--8--8-3-3-3-3-3-3-3-3-7-7-7-7-7-7-7-7-
 ---------------------------------------------------------5-5-5-5-5-5-5-5-

 ---------------------------------|
 ---------------------------------|
 ---------------------------------|
 -7-7-7-7-7-7-7-7-3-3-3-3-3-3-3-3-|
 -7-7-7-7-7-7-7-7-3-3-3-3-3-3-3-3-|
 -5-5-5-5-5-5-5-5-1-1-1-1-1-1-1-1-|

lyrics

you better watch out you better not cry, you better put out records diy
cause it's not what you've done it's what you've been
if you fuck up, i'm telling tim
take you out of book your own life part six you won't play again at abc
you're gonna get ostracized like lawrence
when i tell tim, i'm telling tim, i'm telling tim telling tim



NOFX albums
2003 War on Errorism
2000 Pump Up the Valuum
1997 So Long And Thanks For All The Shoes
1996 Heavy Petting Zoo
1995 I Heard They Suck Live!!
1994 Punk in Drublic
1993 The Longest Line
1993 White Trash, Two Heebs & A Bean
1991 Ribbed
1989 S & M Airlines
So Long And Thanks For All The Shoes tabs
01It's My Job To Keep Punk Rock Elite tabbass tab
02Kids Of The K-Hole tabbass tab
03Murder The Government tabbass tab
04Monosyllabic Girl tabbass tab
05180 Degrees tabbass tab
06All His Suits Are Torn tabbass tab
07All Outta Angst tabbass tab
08I'm Telling Tim tabbass tab
09Champs Elysees tabbass tab
10Dad's Bad News tabbass tab
11Kill Rock Stars tabbass tab
12Eat The Meek tabbass tab
13The Desperation's Gone tabbass tab
14Flossing A Dead Horse tabbass tab
15Quart In Session tabbass tab
16Falling In Love tabbass tab

 

1