Search tabs:
Browse artists: 0-9 | A | B | C | D | E | F | G | H | I | J | K | L | M | N | O | P | Q | R | S | T | U | V | W | X | Y | Z
/ NOFX / So Long And Thanks For All The Shoes (1997) / It's My Job To Keep Punk Rock Elite guitar tab


Date: Thurs, November 20 1997
From: Peter Ferragine (iginition@yesic.com)
Group: NOFX
Album: so long and thanks for all the shoes
Released: 1997 epitaph records
Track: 1
Title: it's my job to keep punk rock elite

/ \ - slide
: - let ring


intro

|------------------------------------------|
|------------------------------------------|
|-5-5-5--5-5-5--5-5-5--5-5-5--5-5-5--5-5-5-|
|-5-5-5--5-5-5--5-5-5--5-5-5--5-5-5--5-5-5-|
|-3-3-3--3-3-3--3-3-3--3-3-3--3-3-3--3-3-3-|
|------------------------------------------|

riff

|----------------------------|
|----------------------------|
|-5-5----------------10-10-8-|
|-5-5--7/9-9--7/9-9--10-10-8-|
|-3-3--7/9-9--7/9-9---8--8-6-|
|------5/7-7--5/9-9----------|

verse

|-----------------------------------------------------------------
|-----------------------------------------------------------------
|-5-5-5-5-5-5-5-5-------------------------------------------------
|-5-5-5-5-5-5-5-5-3-3-3-3-3-3-3-3-6-6-6-6-6-6-6-6-8-8-8-8-8-8-8-8-
|-3-3-3-3-3-3-3-3-3-3-3-3-3-3-3-3-6-6-6-6-6-6-6-6-8-8-8-8-8-8-8-8-
|-----------------1-1-1-1-1-1-1-1-4-4-4-4-4-4-4-4-6-6-6-6-6-6-6-6-

 -----------------------------------------------------------------|
 -----------------------------------------------------------------|
 -5-5-5-5-5-5-5-5-----------------4-4-4-4-4-4-4-4-8-8-8-8-8-8-8-8-|
 -5-5-5-5-5-5-5-5-6-6-6-6-6-6-6-6-4-4-4-4-4-4-4-4-8-8-8-8-8-8-8-8-|
 -3-3-3-3-3-3-3-3-6-6-6-6-6-6-6-6-2-2-2-2-2-2-2-2-6-6-6-6-6-6-6-6-|
 -----------------4-4-4-4-4-4-4-4---------------------------------|

bridge                          outro

|----------------|              |--------------------------------|
|----------------|              |--------------------------------|
|-5-5--5-5--5-5--|              |--------------------------------|
|-5-5--5-5--5-5--|              |--------------------------------|
|-3-3--3-3--3-3--|              |-11--10--8--6--2--3--1--8--7:---|
|----------------|              |--------------------------------|

lyrics

indiscriminate i'd rather be elite, i'll choose my own shit scene
unsubstantiated rumors flown are true, i'm here for me not you
nonconglumurate i mean what i say, i'm not your fucking scape
goat apparently i've alienated some, it seems my job's half done
you'll never understand it, try to buy and brand it
i win you lose, cause it's my job to keep punk rock elite
this music ain't your fuckin' industry



NOFX albums
2003 War on Errorism
2000 Pump Up the Valuum
1997 So Long And Thanks For All The Shoes
1996 Heavy Petting Zoo
1995 I Heard They Suck Live!!
1994 Punk in Drublic
1993 The Longest Line
1993 White Trash, Two Heebs & A Bean
1991 Ribbed
1989 S & M Airlines
So Long And Thanks For All The Shoes tabs
01It's My Job To Keep Punk Rock Elite tabbass tab
02Kids Of The K-Hole tabbass tab
03Murder The Government tabbass tab
04Monosyllabic Girl tabbass tab
05180 Degrees tabbass tab
06All His Suits Are Torn tabbass tab
07All Outta Angst tabbass tab
08I'm Telling Tim tabbass tab
09Champs Elysees tabbass tab
10Dad's Bad News tabbass tab
11Kill Rock Stars tabbass tab
12Eat The Meek tabbass tab
13The Desperation's Gone tabbass tab
14Flossing A Dead Horse tabbass tab
15Quart In Session tabbass tab
16Falling In Love tabbass tab

 

1