Search tabs:
Browse artists: 0-9 | A | B | C | D | E | F | G | H | I | J | K | L | M | N | O | P | Q | R | S | T | U | V | W | X | Y | Z
/ NOFX / So Long And Thanks For All The Shoes (1997) / Kids Of The K-Hole guitar tab


Date: Thurs, November 20 1997
From: Peter Ferragine (iginition@yesic.com)
Group: NOFX 
Album: so long and thanks for all the shoes
Released: 1997 epitaph records
Track: 2
Title: kids of the k-hole


intro - played alot of times 

|-----------------|
|-----------------|
|-----------------|
|-----------------|
|-0-0-0-0-0-0-0-0-|
|-----------------|

riff

|---------------------------------------------------------------
|---------------------------------------------------------------
|-14-14--14-14-14--14-----------------------12-12--12-12-12--12-
|-14-14--14-14-14--14--12-12--12-12-12--12--12-12--12-12-12--12-
|-12-12--12-12-12--12--12-12--12-12-12--12--10-10--10-10-10--10-
|----------------------10-10--10-10-10--10----------------------

 ---------------------|
 ---------------------|
 -14-14--14-14-14--14-|
 -14-14--14-14-14--14-|
 -12-12--12-12-12--12-|
 ---------------------|

verse

|-------------------------------------------------------------------
|-------------------------------------------------------------------
|-----------------5-5-5-5-4-4-4-4-----------------10-10-10-10-10-10-
|-7-7-7-7-7-7-7-7-5-5-5-5-4-4-4-4-7-7-7-7-7-7-7-7-10-10-10-10-10-10-
|-7-7-7-7-7-7-7-7-3-3-3-3-2-2-2-2-7-7-7-7-7-7-7-7--8--8--8--8--8--8-
|-5-5-5-5-5-5-5-5-----------------5-5-5-5-5-5-5-5-------------------

 -------------------------------------------------------------------|
 -------------------------------------------------------------------|
 -9-9-9-9-9-9-9-9-7-7-7-7-7-7-7-7-5-5-5-5-5-5-5-5-10-10-10-10-10-10-|
 -9-9-9-9-9-9-9-9-7-7-7-7-7-7-7-7-5-5-5-5-5-5-5-5-10-10-10-10-10-10-|
 -7-7-7-7-7-7-7-7-5-5-5-5-5-5-5-5-3-3-3-3-3-3-3-3--8--8--8--8--8--8-|
 -------------------------------------------------------------------|

chorus

|---------------------------------------------------------
|---------------------------------------------------------
|---------------------------------------------------------
|-10-10-10-10-10-10-10-10-8-8-8-8-8-8-8-8-3-3-3-3-3-3-3-3-
|-10-10-10-10-10-10-10-10-8-8-8-8-8-8-8-8-3-3-3-3-3-3-3-3-
|--8--8--8--8--8--8--8--8-6-6-6-6-6-6-6-6-1-1-1-1-1-1-1-1-

 -------------------------|
 -------------------------|
 -------------------------|
 -10-10-10-10-10-10-10-10-|
 -10-10-10-10-10-10-10-10-|
 --8--8--8--8--8--8--8--8-|

verse 2

|-------------------------------------------------------------------------
|-------------------------------------------------------------------------
|-------------------------10-10-10-10-10-10-10-10-12-12-12-12-12-12-12-12-
|-10-10-10-10-10-10-10-10-10-10-10-10-10-10-10-10-12-12-12-12-12-12-12-12-
|-10-10-10-10-10-10-10-10--8--8--8--8--8--8--8--8-10-10-10-10-10-10-10-10-
|--8--8--8--8--8--8--8--8-------------------------------------------------

 ---------------------------------------------------------------------
 ---------------------------------------------------------------------
 ---------------------------------------------10-10-10-10-10-10-10-10-
 -10-10-10-10-9-9-9-9-10-10-10-10-10-10-10-10-10-10-10-10-10-10-10-10-
 -10-10-10-10-9-9-9-9-10-10-10-10-10-10-10-10--8--8--8--8--8--8--8--8-
 --8--8--8--8-7-7-7-7--8--8--8--8--8--8--8--8-------------------------

 ----------------------------------------------------------------------
 ----------------------------------------------------------------------
 ---------------------10-10-10-10-10-10-10-10--------------------------
 -10-10-10-10-9-9-9-9-10-10-10-10-10-10-10-10--12-12-12-12-10-10-10-10-
 -10-10-10-10-9-9-9-9--8--8--8--8--8--8--8--8--12-12-12-12-10-10-10-10-
 --8--8--8--8-7-7-7-7--------------------------10-10-10-10--8--8--8--8-

 -------------|
 -------------|
 -10-10-10-10-|
 -10-10-10-10-|
 --8--8--8--8-|
 -------------|

lyrics

everybody needs some time away, just stuck in the k-hole again
an 18 hour holiday, just stuck in the k-hole again, just once again
mrs. kitty ketamine your preseverance may outlast my ambition to go home
infatuation with your dark side i obey 
forbidden pleasures, i have grown to loathe/love
somewhere between eden and north utopia, somewhere beneath the astral plain
i've taken residence on sybaritic soil
you won't be seeing me again, you won't be seeing me again
dropping crumbs and flying thumbs, won't help me get back home
the home is where the heart is, i've been told
'cause i promised my heart to her
she cooked it medium well, then proceeded to swallow it whole
it may sound good to you, it may sound oh so wrong
just stuck in the k-hole again winter's broken, summer's gone
just stuck in the k-hole again just once again



NOFX albums
2003 War on Errorism
2000 Pump Up the Valuum
1997 So Long And Thanks For All The Shoes
1996 Heavy Petting Zoo
1995 I Heard They Suck Live!!
1994 Punk in Drublic
1993 The Longest Line
1993 White Trash, Two Heebs & A Bean
1991 Ribbed
1989 S & M Airlines
So Long And Thanks For All The Shoes tabs
01It's My Job To Keep Punk Rock Elite tabbass tab
02Kids Of The K-Hole tabbass tab
03Murder The Government tabbass tab
04Monosyllabic Girl tabbass tab
05180 Degrees tabbass tab
06All His Suits Are Torn tabbass tab
07All Outta Angst tabbass tab
08I'm Telling Tim tabbass tab
09Champs Elysees tabbass tab
10Dad's Bad News tabbass tab
11Kill Rock Stars tabbass tab
12Eat The Meek tabbass tab
13The Desperation's Gone tabbass tab
14Flossing A Dead Horse tabbass tab
15Quart In Session tabbass tab
16Falling In Love tabbass tab

 

1