Search tabs:
Browse artists: 0-9 | A | B | C | D | E | F | G | H | I | J | K | L | M | N | O | P | Q | R | S | T | U | V | W | X | Y | Z
/ NOFX / So Long And Thanks For All The Shoes (1997) / Kill Rock Stars guitar tab


Date: Mon, December 1 1997
From: Peter Ferragine (iginition@yesic.com)
Group: NOFX
Album: so long and thanks for all the shoes
Released: 1997 epitaph records
Track: 11 
Title: kill rock stars


intro

|----------------------------------------------|
|----------------------------------------------|
|-14-14-14-12-12-12-10-10-10-11-11-11----------|
|-14-14-14-12-12-12-10-10-10-11-11-11-10-10-10-|
|-12-12-12-10-10-10--8--8--8--9--9--9-10-10-10-|
|--------------------------------------8--8--8-|

verse

|-------------------------------------------------------------------------
|-------------------------------------------------------------------------
|-14-14-14-14-14-14-14-14-10-10-10-10-10-10-10-10-12-12-12-12-12-12-12-12-
|-14-14-14-14-14-14-14-14-10-10-10-10-10-10-10-10-12-12-12-12-12-12-12-12-
|-12-12-12-12-12-12-12-12--8--8--8--8--8--8--8--8-10-10-10-10-10-10-10-10-
|-------------------------------------------------------------------------

 ----------------------------------------------------------------------|
 ----------------------------------------------------------------------|
 -----------------------------------------7-7-7-7-7-7-7-7-9-9-9--9-9-9-|
 -10-10-10-10-10-10-10-10-7-7-7-7-7-7-7-7-7-7-7-7-7-7-7-7-9-9-9--9-9-9-|
 -10-10-10-10-10-10-10-10-7-7-7-7-7-7-7-7-5-5-5-5-5-5-5-5-7-7-7--7-7-7-|
 --8--8--8--8--8--8--8--8-5-5-5-5-5-5-5-5------------------------------|

|--------------------------------------------------------------------------|
|--------------------------------------------------------------------------|
|-7-7-7-7-7-7-7-7-7-7-7-7-7-7-7-7-7-10-10-10-10-10-10-10-10-10-10-10-10-10-|
|-7-7-7-7-7-7-7-7-7-7-7-7-7-7-7-7-7-10-10-10-10-10-10-10-10-10-10-10-10-10-|
|-5-5-5-5-5-5-5-5-5-5-5-5-5-5-5-5-5--8--8--8--8--8--8--8--8--8--8--8--8--8-|
|--------------------------------------------------------------------------|

then... (play the line below first then the line above)

|-------------------------------|
|-------------------------------|
|-5-5-5--7-7-7--9-9-9--10-10-10-|
|-5-5-5--7-7-7--9-9-9--10-10-10-|
|-3-3-3--5-5-5--7-7-7---8--8--8-|
|-------------------------------|

lyrics

kill the rockstars, how ironic, kathleen 
you've been crowned the newest queen
kinda like the punk rock gloria steinham
you can't change the world by blaming men
just cause i don't know the reason you're so pissed
don't dare tag me mysoginist
i thought the goal here was mutual respect
not constructing a simple sect
i wish i could have seen courtney
demonstrate some real mysoginy 
can't change the world by hating men



NOFX albums
2003 War on Errorism
2000 Pump Up the Valuum
1997 So Long And Thanks For All The Shoes
1996 Heavy Petting Zoo
1995 I Heard They Suck Live!!
1994 Punk in Drublic
1993 The Longest Line
1993 White Trash, Two Heebs & A Bean
1991 Ribbed
1989 S & M Airlines
So Long And Thanks For All The Shoes tabs
01It's My Job To Keep Punk Rock Elite tabbass tab
02Kids Of The K-Hole tabbass tab
03Murder The Government tabbass tab
04Monosyllabic Girl tabbass tab
05180 Degrees tabbass tab
06All His Suits Are Torn tabbass tab
07All Outta Angst tabbass tab
08I'm Telling Tim tabbass tab
09Champs Elysees tabbass tab
10Dad's Bad News tabbass tab
11Kill Rock Stars tabbass tab
12Eat The Meek tabbass tab
13The Desperation's Gone tabbass tab
14Flossing A Dead Horse tabbass tab
15Quart In Session tabbass tab
16Falling In Love tabbass tab

 

1