Search tabs:
Browse artists: 0-9 | A | B | C | D | E | F | G | H | I | J | K | L | M | N | O | P | Q | R | S | T | U | V | W | X | Y | Z
/ NOFX / So Long And Thanks For All The Shoes (1997) / Monosyllabic Girl guitar tab


Date: Thurs, November 20 1997
From: Peter Ferragine (iginition@yesic.com)
Group: NOFX
Album: so long and thanks for all the shoes
Released: 1997 epitaph records
Track: 4
Title: monosylabic girl

x - scratch
pm - palm mute 
: - let ring


intro/main riff

|-----------------------|
|-----------------------|
|-5-x-x-----------------|
|-5-x-x-5-x-x-3-5-5-5-5-|
|-3-x-x-5-x-x-3-5-5-5-5-|
|-------3-x-x-1-3-3-3-3-|

verse                              pre-chorus

pm________________________|
|-------------------------|        |-------------------|
|-------------------------|        |-------------------|
|-5-5-5-------------------|        |-5:---5:-----------|
|-5-5-5-5-5-5-3-3-3-5-5-5-|        |-5:---5:---7:---6--|
|-3-3-3-5-5-5-3-3-3-5-5-5-|        |-3:---3:---7:---6--|
|-------3-3-3-1-1-1-3-3-3-|        |-----------5:---4--|

chorus                                              outro

|---------------------------------------|           |-----------|
|---------------------------------------|           |-----------|
|-5-----------------------------5-5-5-5-|           |-5-5-5-5-5-|
|-5--5-5-5--3--5-5-5--3--5-5-5--5-5-5-5-|           |-5-5-5-5-5-|
|-3--5-5-5--3--5-5-5--3--5-5-5--3-3-3-3-|           |-3-3-3-3-3-|
|----3-3-3--1--3-3-3--1--3-3-3----------|           |-----------|

lyrics

i take her to the aquarium, she says shark
i take her to the planetarium, she says dark
i take her to the seaside, where she likes to spin and twirl
she says sure and cool and yeah she's my monosylabic girl
i take her to the university, she says huh
i take her to our anniversary, she says one
i take her to the jewelry store, i say diamonds she says pearl
oh everyone knows i'm in love, with a momosylabic girl



NOFX albums
2003 War on Errorism
2000 Pump Up the Valuum
1997 So Long And Thanks For All The Shoes
1996 Heavy Petting Zoo
1995 I Heard They Suck Live!!
1994 Punk in Drublic
1993 The Longest Line
1993 White Trash, Two Heebs & A Bean
1991 Ribbed
1989 S & M Airlines
So Long And Thanks For All The Shoes tabs
01It's My Job To Keep Punk Rock Elite tabbass tab
02Kids Of The K-Hole tabbass tab
03Murder The Government tabbass tab
04Monosyllabic Girl tabbass tab
05180 Degrees tabbass tab
06All His Suits Are Torn tabbass tab
07All Outta Angst tabbass tab
08I'm Telling Tim tabbass tab
09Champs Elysees tabbass tab
10Dad's Bad News tabbass tab
11Kill Rock Stars tabbass tab
12Eat The Meek tabbass tab
13The Desperation's Gone tabbass tab
14Flossing A Dead Horse tabbass tab
15Quart In Session tabbass tab
16Falling In Love tabbass tab

 

1