Search tabs:
Browse artists: 0-9 | A | B | C | D | E | F | G | H | I | J | K | L | M | N | O | P | Q | R | S | T | U | V | W | X | Y | Z
/ NOFX / The Longest Line (1993) / Stranded guitar tab


Date: Thurs, October 23 1997
From: Peter Ferragine (iginition@yesic.com)
Group: NOFX
Album: The Longest Line
Released: 1992 fat wreck chords
Track: 3
Title: stranded

/ \ - slide
pm - palm mute


intro

|--------------------------------------------------------|
|--------------------------------------------------------|
|-----------9-9------------9-9------------9-9--9\7-7-7-7-|
|-7-7-7-7-7-9-9--7-7-7-7-7-9-9--7-7-7-7-7-9-9--9\7-7-7-7-|
|-7-7-7-7-7-7-7--7-7-7-7-7-7-7--7-7-7-7-7-7-7--7\5-5-5-5-|
|-5-5-5-5-5------5-5-5-5-5------5-5-5-5-5----------------|

|-----------------------------------------------------------------------|
|-----------------------------------------------------------------------|
|-----------------------------------------------------------------------|
|-4-4-4-4-2-4-5-5-5-5-5-5-4-4-4-4-2-4---5-5-5-5-4-4-4-4-2-4-5-5-5-5-5-5-|
|-4-4-4-4-2-4-5-5-5-5-5-5-4-4-4-4-2-4---5-5-5-5-4-4-4-4-2-4-5-5-5-5-5-5-|
|-2-2-2-2-0-2-3-3-3-3-3-3-2-2-2-2-0-2---3-3-3-3-2-2-2-2-0-2-3-3-3-3-3-3-|

verse

|-------------------------------------------------------------------------
|-------------------------------------------------------------------------
|---------7-7-7-7-------------------------7-7-7-7-------------------------
|-4-4-4-4-7-7-7-7-7-7-7-7-2-2-2-2-4-4-4-4-7-7-7-7-2-2-2-2-2-2-2-2-4-4-4-4-
|-4-4-4-4-5-5-5-5-7-7-7-7-2-2-2-2-4-4-4-4-5-5-5-5-2-2-2-2-2-2-2-2-4-4-4-4-
|-2-2-2-2---------5-5-5-5-0-0-0-0-2-2-2-2---------0-0-0-0-0-0-0-0-2-2-2-2-

 ---------------------------------------------------------|
 ---------------------------------------------------------|
 -7-7-7-7-------------------------7-7-7-7-----------------|
 -7-7-7-7-7-7-7-7-2-2-2-2-4-4-4-4-7-7-7-7-7-7-7-7-2-2-2-2-|
 -5-5-5-5-7-7-7-7-2-2-2-2-4-4-4-4-5-5-5-5-7-7-7-7-2-2-2-2-|
 ---------5-5-5-5-0-0-0-0-2-2-2-2---------5-5-5-5-0-0-0-0-|

|------------------------------------------------------------------|
|------------------------------------------------------------------|
|-------------7-7-6-6---------9-9-9-9-------------7-7-6-6-9--9--9--|
|-4-4-4-4-2-4-7-7-6-6-7-7-7-7-9-9-9-9-4-4-4-4-2-4-7-7-6-6-9--9--9--|
|-4-4-4-4-2-4-5-5-4-4-7-7-7-7-7-7-7-7-4-4-4-4-2-4-5-5-4-4-7--7--7--|
|-2-2-2-2-0-2---------5-5-5-5---------2-2-2-2-0-2------------------|

pre chorus

pm________________________________________|
|-----------------------------------------|
|-----------------------------------------|
|-----------------------------------------|
|-4-4-----4-4-----4-4-----4-4-----4-4-4-4-|
|-4-4-----4-4-----4-4-----4-4-----4-4-4-4-|
|-2-2-----2-2-----2-2-----2-2-----2-2-2-2-|

chorus - play twice

|---------------------------------------------|
|---------------------------------------------|
|-7-7-7-7-11-11-11-11-10-10-10-10-10-10-10-10-|
|-7-7-7-7-11-11-11-11-10-10-10-10-10-10-10-10-|
|-5-5-5-5--9--9--9--9--8--8--8--8--8--8--8--8-|
|---------------------------------------------|

post chorus

|-------------------------------------------|
|-------------------------------------------|
|-7-9-7-9-7-9-7-9-7-9-7-9-7-9-7-9-7-9-9-7-7-|
|-7-9-7-9-7-9-7-9-7-9-7-9-7-9-7-9-7-9-9-7-7-|
|-5-7-5-7-5-7-5-7-5-7-5-7-5-7-5-7-5-7-7-5-5-|
|-------------------------------------------|

lyrics

she once told me not to listen, find the answers, intuition
follow no-one, trust your instincts, face the world, find out it stinks
don't come crying, don't come crying, don't come crying to me
i'm not your friend, i'm just your lover
don't put your faith, don't put your faith in me
you cut me up and rob me blind, but now i'm fine
she told me about the places i could never find
she told me how to walk while by her side
don't be fooled by teardrops, they're worth a thousand lies
when i saw them running down her face, i believed in her
stranded, ah ah, stranded, ah, ah
hit me in the gut like a brick through a window
left me in the gutter like a wet news rag
sitting alone, thinking out the times we never had, cause you were my life
she told me if and whether, we'd spend the night together
she made so many promises, i believed her
 


NOFX albums
2003 War on Errorism
2000 Pump Up the Valuum
1997 So Long And Thanks For All The Shoes
1996 Heavy Petting Zoo
1995 I Heard They Suck Live!!
1994 Punk in Drublic
1993 The Longest Line
1993 White Trash, Two Heebs & A Bean
1991 Ribbed
1989 S & M Airlines
The Longest Line tabs
01The Death Of John Smith tabbass tab
02The Longest Line tabbass tab
03Stranded tabbass tab
04Remnants tabbass tab
05Kill All The White Man tabbass tab

 

1