Search tabs:
Browse artists: 0-9 | A | B | C | D | E | F | G | H | I | J | K | L | M | N | O | P | Q | R | S | T | U | V | W | X | Y | Z
/ NOFX / War on Errorism (2003) / Anarchy Camp guitar tab

Nofx - Anarchy Camp
Submitted By: hoobastank_182__
EMail: no_parking182@hotmail.com


Standard Tuning: E A D G B e

Intro: (saxophone)
e|---6-----6--8--10--8--6--3----6--8--10--8--6--3---6--8--10--8--6---9---6--|
B|--------------------------------------------------------------------------|
G|--------------------------------------------------------------------------|
D|--------------------------------------------------------------------------|
A|--------------------------------------------------------------------------|
E|--------------------------------------------------------------------------|

Chords used:
e|--------------------------------------------------------------------------|
B|--------------------------------------------------------------------------|
G|---3---------------------8----------8-------------------------------------|
D|---3----------5----------9----------8-------------------------------------|
A|---1----------5----------6----------6-------------------------------------|
E|--------------3-----------------------------------------------------------|

Saxaphone parts:
e|--------------------------------------------------------------------------|
B|--------------------------------------------------------------------------|
G|--0-10--10-10-10--10-8-7-7--0-10--10-10-10--10-8-7-7----------------------|
D|--------------------------------------------------------------------------|
A|--------------------------------------------------------------------------|
E|--------------------------------------------------------------------------|

e|--------------------------------------------------------------------------|
B|--------------------------------------------------------------------------|
G|--5-8--8-7-8--10--10-10-10-8-7--------------------------------------------|
D|-------------------------------8------------------------------------------|
A|--------------------------------------------------------------------------|
E|--------------------------------------------------------------------------|

e|--------------------------------------------------------------------------|
B|--------------------------------------------------------------------------|
G|--0-10--10-10-10--10-8-7-7--0-10--10-10-10--10-8-7-7----------------------|
D|--------------------------------------------------------------------------|
A|--------------------------------------------------------------------------|
E|--------------------------------------------------------------------------|

e---------------------------------------------------------------------------|
B|-------------------------------------17-16--------------------------------|
G|--5-8--8-7-8--10--12-10-12-10--12-15-------17-15--------------------------|
D|--------------------------------------------------------------------------|
A|--------------------------------------------------------------------------|
E|--------------------------------------------------------------------------|





intro
|----------------------------------------------------------------|x1
|----------------------------------------------------------------|x1
|3---------------------------------------------------------------|x1
|3---------------5---------------5---------------3---------------|x1
|1---------------5---------------5---------------3---------------|x1
|----------------3---------------3---------------1---------------|x1
verse
|x6x6x6x6x6x6x6x6x3x3x3x3x3x3x3x3x6x6x6x6x6x6x6x6x6x6x6x6x6x6x6x6|x2
|x6x6x6x6x6x6x6x6x3x3x3x3x3x3x3x3x8x8x8x8x8x8x8x8x8x8x8x8x8x8x8x8|x2
|x7x7x7x7x7x7x7x7x3x3x3x3x3x3x3x3x8x8x8x8x8x8x8x8x8x8x8x8x8x8x8x8|x2
|----------------------------------------------------------------|x2
|----------------------------------------------------------------|x2
|----------------------------------------------------------------|x2

|x6x6x6x6x6x6x6x6x3x3x3x3x3x3x3x3x1x1x1x1x1x1x1x1|x1
|x6x6x6x6x6x6x6x6x3x3x3x3x3x3x3x3x1x1x1x1x1x1x1x1|x1
|x7x7x7x7x7x7x7x7x3x3x3x3x3x3x3x3x2x2x2x2x2x2x2x2|x1
|------------------------------------------------|x1
|------------------------------------------------|x1
|------------------------------------------------|x1
chorus instrumental
|x6x6x6x6x6x6x6x6x5x5x5x5x5x5x5x5x6x6x6x6x6x6x6x6x5x5x5x5x5x5x5x5|
|x6x6x6x6x6x6x6x6x6x6x6x6x6x6x6x6x6x6x6x6x6x6x6x6x6x6x6x6x6x6x6x6|
|x7x7x7x7x7x7x7x7x7x7x7x7x7x7x7x7x7x7x7x7x7x7x7x7x7x7x7x7x7x7x7x7|
|----------------------------------------------------------------|
|----------------------------------------------------------------|
|----------------------------------------------------------------|
continue from above
|x1x1x1x1x1x1x1x1x5x5x5x5x5x5x5x5|x1
|x2x2x2x2x2x2x2x2x6x6x6x6x6x6x6x6|x1
|x3x3x3x3x3x3x3x3x7x7x7x7x7x7x7x7|x1
|--------------------------------|x1
|--------------------------------|x1
|--------------------------------|x1
verse
|x6x6x6x6x6x6x6x6x3x3x3x3x3x3x3x3x6x6x6x6x6x6x6x6x6x6x6x6x6x6x6x6|x2
|x6x6x6x6x6x6x6x6x3x3x3x3x3x3x3x3x8x8x8x8x8x8x8x8x8x8x8x8x8x8x8x8|x2
|x7x7x7x7x7x7x7x7x3x3x3x3x3x3x3x3x8x8x8x8x8x8x8x8x8x8x8x8x8x8x8x8|x2
|----------------------------------------------------------------|x2
|----------------------------------------------------------------|x2
|----------------------------------------------------------------|x2

|x6x6x6x6x6x6x6x6x3x3x3x3x3x3x3x3x1x1x1x1x1x1x1x1|x1
|x6x6x6x6x6x6x6x6x3x3x3x3x3x3x3x3x1x1x1x1x1x1x1x1|x1
|x7x7x7x7x7x7x7x7x3x3x3x3x3x3x3x3x2x2x2x2x2x2x2x2|x1
|------------------------------------------------|x1
|------------------------------------------------|x1
|------------------------------------------------|x1
chorus instrumental
|x6x6x6x6x6x6x6x6x5x5x5x5x5x5x5x5x6x6x6x6x6x6x6x6x5x5x5x5x5x5x5x5|
|x6x6x6x6x6x6x6x6x6x6x6x6x6x6x6x6x6x6x6x6x6x6x6x6x6x6x6x6x6x6x6x6|
|x7x7x7x7x7x7x7x7x7x7x7x7x7x7x7x7x7x7x7x7x7x7x7x7x7x7x7x7x7x7x7x7|
|----------------------------------------------------------------|
|----------------------------------------------------------------|
|----------------------------------------------------------------|
continue from above
|x1x1x1x1x1x1x1x1x5x5x5x5x5x5x5x5|x1
|x2x2x2x2x2x2x2x2x6x6x6x6x6x6x6x6|x1
|x3x3x3x3x3x3x3x3x7x7x7x7x7x7x7x7|x1
|--------------------------------|x1
|--------------------------------|x1
|--------------------------------|x1
outro
|x6x6x6x6x6x6x6x6x3x3x3x3x3x3x3x3x3x3x3x3x3x3x3x3x1x1x1x1x1x1x1x1|
|x6x6x6x6x6x6x6x6x6x3x3x3x3x3x3x3x3x3x3x3x3x3x3x3x2x2x2x2x2x2x2x2|
|x7x7x7x7x7x7x7x7x7x3x3x3x3x3x3x3x3x3x3x3x3x3x3x3x3x3x3x3x3x3x3x3|
|----------------------------------------------------------------|
|----------------------------------------------------------------|
|----------------------------------------------------------------|


NOFX albums
2003 War on Errorism
2000 Pump Up the Valuum
1997 So Long And Thanks For All The Shoes
1996 Heavy Petting Zoo
1995 I Heard They Suck Live!!
1994 Punk in Drublic
1993 The Longest Line
1993 White Trash, Two Heebs & A Bean
1991 Ribbed
1989 S & M Airlines
War on Errorism tabs
01The Separation of Church and Skate tabbass tab
02The Irrationality of Rationality tabbass tab
03Franco Un-American tabbass tab
04Idiots Are Taking Over tabbass tab
05She's Nubs tabbass tab
06Mattersville tabbass tab
07Decom-poseur tabbass tab
08Medio-core tabbass tab
09Anarchy Camp tabbass tab
10American Errorist (I Hate Hate Haters) tabbass tab
11We Got Two Jealous Agains tabbass tab
1213 Stitches tabbass tab
13Re-gaining Unconsciousness tabbass tab
14Whoops, I OD'd tabbass tab

 

1