Search tabs:
Browse artists: 0-9 | A | B | C | D | E | F | G | H | I | J | K | L | M | N | O | P | Q | R | S | T | U | V | W | X | Y | Z
/ NOFX / War on Errorism (2003) / Decom-poseur guitar tab

still tabbed by seb Delecroix

intro
E-----------------|
H-----------------|
G----*----*---*---|
D-5h7---10--12----|
A--0-----0---0----|
E-----------------|
:
Main   (the first octave chord only Downstrokes)
E-----------------------------|
H----*----*----*----*----*----|
G--14---17---19---14-/-17-----|
D-----------------------------|
A--12---15---17---12-/-15-----|
E-----------------------------|
:
Verse1 part1
E------------------------------------|
H--------*--------*----*---*---*-----|
G---*--10----*--10----5---5---5----*-|
D--7---10---7---10----5---3---5---5--|
A--7----8---7----8----3---3---3---2--|
E--5--------5------------------------|
:
Verse1 part2
E-/---x4----\---------------------------------|
H-----*---*------*---*------*--*--*--*--------|
G-%-17--19--%---5---3---*--5--5--5--7---*-----|
D-%---------%---5---3--3---5--3--5--7--3------|
A-%-15--17--%---3---1--3---3--3--3--5--3------|
E----------------------1---------------1------|
:
Main   (the first octave chord only Downstrokes)
E-----------------------------|
H----*----*----*----*----*----|
G--14---17---19---14-/-17-----|
D-----------------------------|
A--12---15---17---12-/-15-----|
E-----------------------------|
:
Verse2:like Verse1-part2 but the octave riffx2 instead of x4
       +the last chord is played with stops

Solo
E-------------------------------------------------------------
H-------5-8-6-5-----------6-5--------------5------------------
G-----7---------7-5-4-5-7-----7-5-4----4-5---7-5-4------------
D---7--------------------------------7-------------7----------
A-------------------------------------------------------------
E-------------------------------------------------------------
:
E--------------------------------------------|
H--------------5---/8-6-6p5-5----------------|
G------4-7-5-7---7-------------7-9-9/10------|
D--5-7---------------------------------------|
A--------------------------------------------|
E--------------------------------------------|
:
Verse3
E-/---x2----\--------------------------------/----x10---\|
H-----*---*--------*---*---*------*--*--*--*---*---*---*-|
G-%-17--19--%--*-10---5---3---*--5--5--5--7--14--17--19--|
D-%---------%-7--10---5---3--3---5--3--5--7--------------|
A-%-15--17--%-7---8---3---1--3---3--3--3--5--12--15--17--|
E-------------5--------------1---------------------------|
:
Ends on
E----|
H----|
G-14-|
D----|
A-12-|
E----|
:

Git.2

Into   -      Main
E-----------|---/--4x--\-----------------|
H---*--*--*-|-----------------*--*--*----|
G-12-11-10--|----14-12------12-11-10-----|
D-----------|----14-12-------------------|
A-10--9--8--|----------0----10--9--8-----|
E-----------|----------------------------|
:
Verse1 part1 is just like on guitar1 but the low F-Powerchord is played insteadt of the high one

Verse1 part2
E------------------------------------------------------
H----------------------*-----------------------*-------
G---14-12--14-12-----10-----14-12--14-12-----10--------
D-%-14-12--14-12-%---10---%-14-12--14-12-%---10--------
A-%-------0------%--------%-------0------%-------------
E-%--------------%--------%--------------%-------------
Verse1 part2
E---------------------------------|
H--*-----*------*--*--*--*--------|
G-5-----3---*--5--5--5--7---*-----|
D-5-----3--3---5--3--5--7--3------|
A-3-----1--3---3--3--3--5--3------|
E----------1---------------1------|
:
Main
E---/--4x--\-----------------|
H-----------------*--*--*----|
G----14-12------12-11-10-----|
D----14-12-------------------|
A----------0----10--9--8-----|
E----------------------------|
:
Verse2
E-/-----x2----\---->
H------------------>
G---/-x2\-----*---->
D-%-14-12-%--3----->
A-%-14-12-%--3----->
E-%-------%--1----->

E--------------------------------|
H---*---*------*--*--*--*--------|
G--5---3---*--5--5--5--7---*-----|
D--5---3--3---5--3--5--7--3------|
A--3---1--3---3--3--3--5--3------|
E---------1---------------1------|Last Chord with stops
:
Solo
E--17-17------------------------------------------------------
H-b20b20b20-20-17-----------------------17-18-b18b18-v18-13---
G-----------------20-19-17-------17-v14---------------------14
D--------------------------17-19------------------------------
A-------------------------------------------------------------
E-------------------------------------------------------------

E-----------------------10--8-10--8-10--8-10-10--8-10--8-10--8
H-13h15-13-------13-------------------------------------------
G----------14-12----v9----------------------------------------
D-------------------------------------------------------------
A-------------------------------------------------------------
E-------------------------------------------------------------

E-10--8-10-10--8----------------------------------------------
H-------------------------------------------------------------
G-----------------12-10-12-10-12-10-12-12-10------------------
D--------------------------------------------12-10-12-10-12-10
A-------------------------------------------------------------
E-------------------------------------------------------------

E-----------10-8-10-8-10-8----------10-8-10-8-10--8------
H--------------------------------------------------------
G--------------------------12-12-10~~~~------------------
D-12-12-10-----------------------------------------------
A--------------------------------------------------------
E--------------------------------------------------------

E------------------------------------------|
H------------------------------------------|
G--10-10-9~~~------------------------------|
D----------12-10-12-10-12-10-12-12-10-12---|
A------------------------------------------|
E------------------------------------------|
:
Verse3
E------------------>
H------------------>
G---/-x2\-----*---->
D-%-14-12-%--3----->
A-%-14-12-%--3----->
E-%-------%--1----->
:
E-------------------------------------|
H--------*---*------*--*--*--*--------|
G--*--*-5---3---*--5--5--5--7---*-----|
D-7--3--5---3--3---5--3--5--7--3------|
A-7--3--3---1--3---3--3--3--5--3------|
E-5--1---------1---------------1------|
:
Outro
E-------------------------------------------------------|
H------------*--*--*--*--*--*--*--*--*--*--*--*--*--*---|
G---*--*--*-7--9--9-10--9--9-10-10-10--9-10-10-10--9--9-|
D--7--5--3--7-------------------------------------------|
A--7--5--3--5--7--7--8--7--7--8--8--8--7--8--8--8--7--7-|
E--5--3--1----------------------------------------------|


NOFX albums
2003 War on Errorism
2000 Pump Up the Valuum
1997 So Long And Thanks For All The Shoes
1996 Heavy Petting Zoo
1995 I Heard They Suck Live!!
1994 Punk in Drublic
1993 The Longest Line
1993 White Trash, Two Heebs & A Bean
1991 Ribbed
1989 S & M Airlines
War on Errorism tabs
01The Separation of Church and Skate tabbass tab
02The Irrationality of Rationality tabbass tab
03Franco Un-American tabbass tab
04Idiots Are Taking Over tabbass tab
05She's Nubs tabbass tab
06Mattersville tabbass tab
07Decom-poseur tabbass tab
08Medio-core tabbass tab
09Anarchy Camp tabbass tab
10American Errorist (I Hate Hate Haters) tabbass tab
11We Got Two Jealous Agains tabbass tab
1213 Stitches tabbass tab
13Re-gaining Unconsciousness tabbass tab
14Whoops, I OD'd tabbass tab

 

1