Search tabs:
Browse artists: 0-9 | A | B | C | D | E | F | G | H | I | J | K | L | M | N | O | P | Q | R | S | T | U | V | W | X | Y | Z
/ NOFX / War on Errorism (2003) / Franco Un-American guitar tab

Symbols-
*=palm mute
/=slide up
LR=let ring

guitar 2 plays this riff 5 times until guitar 1 finishes the intro once then they
play the intro 3 more times together

E|---------------|
B|---------------|
G|---------------|
D|---------------|
A|-5/-10-10------|
E|---------------|

 Intro
E|----------------------------------------------------------------|
B|----------------------------------------------------------------|
G|---------5--5-5----------9-9-9-------------5--5-5--7--7-7-------|
D|-5--5-5--5--5-5--5--5-5--9-9-9---7-7-7-77--5--5-5--7--7-7-------| X4
A|-5--5-5--3--3-3--5--5-5--7-7-7---7-7-7-77--3--3-3--5--5-5-------|
E|-3--3-3----------3--3-3----------5-5-5-55-----------------------|

  Riff 1  Guitar 1 and 2
E|-----------------------------------------------------------------------|
B|-----------------------------------------------------------------------|
G|----------5-5-5-5-----------9-9-9-9-------------------5-5-5-5--7-7-7-7-|
D|-5-5-5-5--5-5-5-5--5-5-5-5--9-9-9-9--7-7-7-7-7-7-7-7--5-5-5-5--7-7-7-7-| X2
A|-5-5-5-5--3-3-3-3--5-5-5-5--7-7-7-7--7-7-7-7-7-7-7-7--3-3-3-3--5-5-5-5-|
E|-3-3-3-3-----------3-3-3-3-----------5-5-5-5-5-5-5-5-------------------|
   *******  *******  *******  ******** ***************  *******  *******

E|---------------------------------------|
B|---------------------------------------|
G|----------7-7-7-7-----------5-5-7-7----|
D|-5-5-5-5--7-7-7-7--2-2-2-2--5-5-7-7----| X3
A|-5-5-5-5--5-5-5-5--2-2-2-2--3-3-5-5----|
E|-3-3-3-3-----------0-0-0-0-------------|

  Chorus     Guitar 1 and 2
E|---------------------------------------|
B|---------------------------------------|
G|----------7-7-7-7-----------5-5-5-5----|
D|-5-5-5-5--7-7-7-7--2-2-2-2--5-5-5-5----| X3
A|-5-5-5-5--5-5-5-5--2-2-2-2--3-3-3-3----|
E|-3-3-3-3-----------0-0-0-0-------------|

 Riff 2  Guitar 1 and 2
E|----------------------|
B|----------------------|
G|----------7-7-7-7-----|
D|-5-5-5-5--7-7-7-7--2--|
A|-5-5-5-5--5-5-5-5--2--|
E|-3-3-3-3-----------0--|

 Intro  Guitar 1 and 2
E|---------------------------------------------------------------|
B|---------------------------------------------------------------|
G|---------5--5-5----------9-9-9------------5--5-5--7--7-7-------|
D|-5--5-5--5--5-5--5--5-5--9-9-9--7-7-7-77--5--5-5--7--7-7-------| X4
A|-5--5-5--3--3-3--5--5-5--7-7-7--7-7-7-77--3--3-3--5--5-5-------|
E|-3--3-3----------3--3-3---------5-5-5-55-----------------------|


  Riff 1  Guitar 1 and 2
E|-----------------------------------------------------------------------|
B|-----------------------------------------------------------------------|
G|----------5-5-5-5-----------9-9-9-9-------------------5-5-5-5--7-7-7-7-|
D|-5-5-5-5--5-5-5-5--5-5-5-5--9-9-9-9--7-7-7-7-7-7-7-7--5-5-5-5--7-7-7-7-| X2
A|-5-5-5-5--3-3-3-3--5-5-5-5--7-7-7-7--7-7-7-7-7-7-7-7--3-3-3-3--5-5-5-5-|
E|-3-3-3-3-----------3-3-3-3-----------5-5-5-5-5-5-5-5-------------------|
   *******  *******  *******  ******** ***************  *******  *******


 Riff 3  Guitar 1 and 2
E|-------------------------------------------------------------------------|
B|-------------------------------------------------------------------------|
G|------5-5-------9-9-----------5-5--7-7-----------------------------------|
D|-5-5--5-5--5-5--9-9--7-7-7-7--5-5--7-7-X2--5-5-5-5-5-5-5-5-5-5-5-5-5-LR--|
A|-5-5--3-3--5-5--7-7--7-7-7-7--3-3--5-5-----5-5-5-5-5-5-5-5-5-5-5-5-5-LR--|
E|-3-3-------3-3-------5-5-5-5---------------3-3-3-3-3-3-3-3-3-3-3-3-3-LR--|

for the next 11 seconds Fat Mike plays a piano/organ solo with the drums in the
background then the guitar comesback in...

 Outro   Guitar 1 and 2    when Melvin and Hefe play this they kinda pump the fingers
                           up when there finished each note so when u play it play it
                           like that and it will sound better
E|------------------------------------------------------------------------|
B|------------------------------------------------------------------------|
G|----------5-5-5-5-----------9-9-9-9-------------------5-5-5-5--7-7-7-7--|
D|-5-5-5-5--5-5-5-5--5-5-5-5--9-9-9-9--7-7-7-7-7-7-7-7--5-5-5-5--7-7-7-7--|
A|-5-5-5-5--3-3-3-3--5-5-5-5--7-7-7-7--7-7-7-7-7-7-7-7--3-3-3-3--5-5-5-5--|
E|-3-3-3-3-----------3-3-3-3-----------5-5-5-5-5-5-5-5--------------------|



If you have any comments or if you would like to insult me you can go f*ck yourself ;-) =P
or you could send an email to : toj3@hotmail.com

thanxx

Long Live NOFX

Down With George Bush !

but remember this : VOTE BUSH VOTE BUSH !! oh come on, we all know a plant can do better than
George W. Bush =P


NOFX albums
2003 War on Errorism
2000 Pump Up the Valuum
1997 So Long And Thanks For All The Shoes
1996 Heavy Petting Zoo
1995 I Heard They Suck Live!!
1994 Punk in Drublic
1993 The Longest Line
1993 White Trash, Two Heebs & A Bean
1991 Ribbed
1989 S & M Airlines
War on Errorism tabs
01The Separation of Church and Skate tabbass tab
02The Irrationality of Rationality tabbass tab
03Franco Un-American tabbass tab
04Idiots Are Taking Over tabbass tab
05She's Nubs tabbass tab
06Mattersville tabbass tab
07Decom-poseur tabbass tab
08Medio-core tabbass tab
09Anarchy Camp tabbass tab
10American Errorist (I Hate Hate Haters) tabbass tab
11We Got Two Jealous Agains tabbass tab
1213 Stitches tabbass tab
13Re-gaining Unconsciousness tabbass tab
14Whoops, I OD'd tabbass tab

 

1