Search tabs:
Browse artists: 0-9 | A | B | C | D | E | F | G | H | I | J | K | L | M | N | O | P | Q | R | S | T | U | V | W | X | Y | Z
/ NOFX / War on Errorism (2003) / Idiots Are Taking Over guitar tab

Song  : Idiots Are Taking Over
Album : The War On Errorism
Artist: NOFX
Label : Fat Wreck Chords

Tabbed by: Ruben Gutierrez (ruben@snpp.com.ar)


Symbols used in this tab:
------------------------
P.M - palm mutting
(b) - bend string up
X   - pick sliding
/   - slide up
\   - slide down
( ) - let ring

-------------------------------------------------------------------

[Bass intro]

INTRO:

    Guitar 1
E |--------------------------------|--------------------------------
B |--------------------------------|--------------------------------
G |--------------------------------|--------------------------------
D |--------------------------------|--------------------------------
A |--0000------------0000----------|--0000------------0000----------
E |--------------------------------|--------------------------------
  |  P.M.            P.M.          |  P.M.            P.M.
  |                                |
  | Guitar 2                       |                bend up 1/4 tone
E |--------------------------------|--------------------------------
B |--------------------------------|--------------------------------
G |--------------------------------|--------------------------------
D |--------------------------------|--------------------------------
A |--------------------------------|--------------------------------
E |--------------------------------|----------------------------3(b)

    Guitar 1
E |--------------------------------|--------------------------------
B |--------------------------------|--------------------------------
G |--------------------------------|--------------------------------
D |--------------------------------|--------------------------------
A |--0000--0000------0000----------|--0000--0000------0000----------
E |--------------------------------|--------------------------------
  |  P.M.  P.M.      P.M.          |  P.M.  P.M.      P.M.
  |                                |
  | Guitar 2                       |                bend up 1/4 tone
E |--------------------------------|--------------------------------
B |--------------------------------|--------------------------------
G |2------(2)-----(2)-----(2)------|--------------------------------
D |2------(2)-----(2)-----(2)------|--------------------------------
A |0------(0)-----(0)-----(0)------|--------------------------------
E |--------------------------------|----------------------------3(b)

    Guitar 1
E |--------------------------------|--------------------------------
B |--------------------------------|--------------------------------
G |--------------------------------|--------------------------------
D |--------------------------------|--------------------------------
A |--0000--0000------0000----------|--0000--0000------0000----------
E |--------------------------------|--------------------------XXXXXX
  |  P.M.  P.M.      P.M.          |  P.M.  P.M.      P.M.
  |                                |
  | Guitar 2                       |
E |--------------------------------|--------------------------------
B |--------------------------------|--------------------------------
G |2------(2)-----(2)-----(2)------|--------------------------------
D |2------(2)-----(2)-----(2)------|--------------------------------
A |0------(0)-----(0)-----(0)------|--------------------------------
E |--------------------------------|------------------------XXXXXXXX


VERSE A:

    Guitar 1
E |--------------------------------|--------------------------------
B |--------------------------------|--------------------------------
G |11--------------7---------------|----------------8---------------
D |11--------------7---------------|7---------------9---------------
A |9---------------5---------------|7---------------9---------------
E |--------------------------------|5---------------7---------------
  |                                |
  | Guitar 2                       |
E |--------------------------------|--------------------------------
B |--------------------------------|--------------------------------
G |11--------------7---------------|----------------8---------------
D |11--------------7---------------|7-------------------------------
A |9---------------5---------------|7---------------6---------------
E |--------------------------------|5-------------------------------

    Guitar 1 & 2      bend up 1/4 tone               Guitar 2*
E |--------------------------------|--------------------------------
B |--------------------------------|------------------10-10-10-1010-
G |5-------------------------------|2------(2)--------9--9--9--1010-
D |5---------------9---------------|2------(2)--------7--7--7--7-7--
A |7---------------9---------------|0------(0)----------------------
E |----------------7-----------3(b)|--------------------------------
                                              *play each chord twice
    Guitar 1
E |--------------------------------|--------------------------------
B |--------------------------------|--------------------------------
G |11--------------7---------------|----------------8---------------
D |11--------------7---------------|7---------------9---------------
A |9---------------5---------------|7---------------9---------------
E |--------------------------------|5---------------7---------------
  |                                |
  | Guitar 2                       |
E |--------------------------------|--------------------------------
B |--------------------------------|--------------------------------
G |11--------------7---------------|----------------8---------------
D |11--------------7---------------|7-------------------------------
A |9---------------5---------------|7---------------6---------------
E |--------------------------------|5-------------------------------


    Guitar 1 & 2
E |--------------------------------|--------------------------------
B |--------------------------------|--------------------------------
G |5-------------------------------|--------------------------------
D |5---------------9---------------|7-------------------------------
A |7---------------9---------------|7-------------------------------
E |----------------7---------------|5-------------------------------

    Guitar 1 & 2
E |--------------------------------|--------------------------------
B |--------------------------------|----------------4---------------
G |--------------------------------|5---------------5---------------
D |4-------------------------------|5---------------5---------------
A |4-------------------------------|7---------------7---------------
E |2-------------------------------|--------------------------------

    Guitar 1 & 2
E |--------------------------------|--------------------------------
B |--------------------------------|--------------------------------
G |--------------------------------|--------------------------------
D |7-------------------------------|4-------------------------------
A |7-------------------------------|4-------------------------------
E |5-------------------------------|2-------------------------------


VERSE A1:

    Guitar 1 & 2                                            Guitar 1
E |--------------------------------|--------------------------------
B |--------------------------------|--------------------------------
G |----------------5---------------|--------------------------------
D |3---------------5---------------|7------(7)----------------------
A |3---------------7---------------|7------(7)----------------------
E |1-------------------------------|5------(5)--------------XXXXXXXX


[Repeat VERSE A]


VERSE A2:

    Guitar 1 & 2
E |--------------------------------
B |--------------------------------
G |----------------5------(5)------
D |3---------------5------(5)------
A |3---------------7------(7)------
E |1-------------------------------


BRIDGE: [Fast reggae rythm]

   Guitar 1
E |5---5---5---5---5---5---5---5---|5---5---5---5---5---5---5---5---
B |5---5---5---5---5---5---5---5---|7---7---7---7---7---7---7---7---
G |6---6---6---6---6---6---6---6---|6---6---6---6---6---6---6---6---
D |--------------------------------|--------------------------------
A |----------------Guitar 2:-------|--------------------------------
E |------------------------Fill A--|--------------------------------
  |                                |
  | Guitar 2                       |
E |--------------------------------|9-------------------------------
B |--------------------------------|10------------------------------
G |--------------------------------|11------------------------------
D |--------- with Fill A ----------|--------------------------------
A |--------------------------------|--------------------------------
E |--------------------------------|--------------------------------

Fill A: (tabbed at half the speed)
E |----------------------------------------------------------------
B |----------------------------------------------------------------
G |------------------------------------------------11--9---9---11--
D |-----------------------------------------------------11---------
A |----------------------------------------------------------------
E |----------------------------------------------------------------

   Guitar 1
E |5---5---5---5---5---5---5---5---|5---5---5---5---5---5---5---5---
B |7---7---7---7---7---7---7---7---|7---7---7---7---7---7---7---7---
G |7---7---7---7---7---7---7---7---|6---6---6---6---6---6---6---6---
D |--------------------------------|--------------------------------
A |--------------------------------|--------------------------------
E |--------------------------------|--------------------------------
  |                                |
  | Guitar 2                       |
E |10-----(10)----(10)----(10)-----|9-------------------------------
B |10------------------------------|10------------------------------
G |11------------------------------|11------------------------------
D |--------------------------------|--------------------------------
A |--------------------------------|--------------------------------
E |--------------------------------|--------------------------------

   Guitar 1
E |5---5---5---5---5---5---5---5---|5---5---5---5---5---5---5---5---
B |7---7---7---7---7---7---7---7---|5---5---5---5---5---5---5---5---
G |7---7---7---7---7---7---7---7---|6---6---6---6---6---6---6---6---
D |--------------------------------|--------------------------------
A |--------------------------------|--------------------------------
E |--------------------------------|--------------------------------
  |                                |
  | Guitar 2                       |
E |--------------------------------|9-------------------------------
B |--------------------------------|10------------------------------
G |--------------------------------|11------------------------------
D |--------- with Fill B ----------|--------------------------------
A |--------------------------------|--------------------------------
E |--------------------------------|--------------------------------

Fill B: (tabbed at half the speed)
E |10--------------------------------------------------------------
B |10--------------------------------------------------------------
G |11--------------9-----------------------------------------------
D |--------------------11--9--------------------------/11\---------
A |----------------------------9------(9)-----(9)------------------
E |----------------------------------------------------------------

    Guitar 1
E |5---5---5---5---5---5---5---5---|5---5---5---5---5---5---5---5---
B |7---7---7---7---7---7---7---7---|5---5---5---5---5---5---5---5---
G |7---7---7---7---7---7---7---7---|6---6---6---6---6---6---6---6---
D |--------------------------------|--------------------------------
A |--------------------------------|--------------------------------
E |--------------------------------|--------------------------------
  |                                |
  | Guitar 2                       |
E |10------------------------------|--------------------------------
B |10------------------------------|--------------------------------
G |11------------------------------|--------------------------------
D |--------------------------------|--------2/4\2/4----(4)----------
A |--------------------------------|--------------------------------
E |--------------------------------|--------------------------------


VERSE B:

    Guitar 1
E |--------------------------------|--------------------------------
B |--------------------------------|--------------------------------
G |11--------------7---------------|----------------8---------------
D |11--------------7---------------|7---------------9---------------
A |9---------------5---------------|7---------------9---------------
E |--------------------------------|5---------------7---------------
  |                                |
  | Guitar 2                       |
E |--------------------------------|--------------------------------
B |--------------------------------|--------------------------------
G |11--------------7---------------|----------------8---------------
D |11--------------7---------------|7-------------------------------
A |9---------------5---------------|7---------------6---------------
E |--------------------------------|5-------------------------------

    Guitar 1 & 2
E |--------------------------------|--------------------------------
B |--------------------------------|--------------------------------
G |5-------------------------------|--------------------------------
D |5---------------9---------------|7-------------------------------
A |7---------------9---------------|7-------------------------------
E |----------------7---------------|5-------------------------------

    Guitar 1 & 2
E |--------------------------------|--------------------------------
B |--------------------------------|--------------------------------
G |--------------------------------|----------------5---------------
D |4-------------------------------|3---------------5---------------
A |4-------------------------------|3---------------7---------------
E |2-------------------------------|1-------------------------------

    Guitar 1 & 2
E |--------------------------------
B |--------------------------------
G |--------------------------------
D |7-------------------------------
A |7-------------------------------
E |5-------------------------------


OUTRO:

    Guitar 1
E |--------------------------------|--------------------------------
B |--------------------------------|--------------------------------
G |14\-12/-14\-12/-14\-12/-14\-12--|--------------------------------
D |--------------------------------|--------- with Fill C ----------
A |12\-10/-12\-10/-12\-10/-12\-10--|--------------------------------
E |--------------------------------|--------------------------------
  |                                |
  | Guitar 2                       |
E |--------------------------------|--------------------------------
B |--------------------------------|--------------------------------
G |10--------------7---------------|--------------------------------
D |10--------------7---------------|7-------------------------------
A |8---------------5---------------|7-------------------------------
E |--------------------------------|5-------------------------------


Fill C: (tabbed at half the speed)
E |----------------------------------------------------------------
B |----------------------------------------------------------------
G |14--\---12--/---14--\--12/14\12/14--/---12--\--14---/---12--\---
D |----------------------------------------------------------------
A |12--\---10--/---12--\--10/12\10/12--/---10--\--12---/---10--\---
E |----------------------------------------------------------------


[Repeat OUTRO 3 times with Guitar 1 playing Fill C]


-------------------------------------------------------------------

This was my first tab. Hope you enjoyed it.

- Ruben


NOFX albums
2003 War on Errorism
2000 Pump Up the Valuum
1997 So Long And Thanks For All The Shoes
1996 Heavy Petting Zoo
1995 I Heard They Suck Live!!
1994 Punk in Drublic
1993 The Longest Line
1993 White Trash, Two Heebs & A Bean
1991 Ribbed
1989 S & M Airlines
War on Errorism tabs
01The Separation of Church and Skate tabbass tab
02The Irrationality of Rationality tabbass tab
03Franco Un-American tabbass tab
04Idiots Are Taking Over tabbass tab
05She's Nubs tabbass tab
06Mattersville tabbass tab
07Decom-poseur tabbass tab
08Medio-core tabbass tab
09Anarchy Camp tabbass tab
10American Errorist (I Hate Hate Haters) tabbass tab
11We Got Two Jealous Agains tabbass tab
1213 Stitches tabbass tab
13Re-gaining Unconsciousness tabbass tab
14Whoops, I OD'd tabbass tab

 

1