Search tabs:
Browse artists: 0-9 | A | B | C | D | E | F | G | H | I | J | K | L | M | N | O | P | Q | R | S | T | U | V | W | X | Y | Z
/ NOFX / War on Errorism (2003) / Mattersville guitar tab

artist: nofx
song: mattersville
album: the war on errorism (fat wreck chords 2003) #6
written by: fat mike, eric melvin and el hefe
tabbed by: laura (poisonedheartswillneverchange@hotmail.com)
tuning: standard, EADGBe

this was one b!tch of a song to tab cos theres like 4 different chord progressions in it.
extremely aggravating...

INTRO
ska/funk riff. the strumming is tricky but you'll get the hang of it.
 Em barre chord
|---7---|
|---8---|
|---9---|
|---9---|
|---7---|
|-------|

VERSE (palm muted)  im not 100% sure about this, but it sounds okay
|----------------------------------------------------------------------------|
|----------------------------------------------------------------------------|
|----------------------------------------------------------------------------|
|-9999-10-10-10-10-7777-9999-------------------------------------------------|
|----------------------------10-10-10-10-12-12-12-12-10-10-10-10-12-12-12-12-|
|----------------------------------------------------------------------------|

  G5  A5  D5  G5  E5  A5  C5  G5
|-------------------------------|
|-------------------------------|
|---------7---------------5-----|
|-5---7---7---5---2---7---5---5-|
|-5---7---5---5---2---7---3---5-|
|-3---5-------3---0---5-------3-|

CHORUS
  E5  C5  G5 D#5
|-----------------|
|-----------------|
|-9---5-------8---|
|-9---5---5---8---| x2 then....
|-7---3---5---6---|
|---------3-------|

  E5  G5  D5  E5  C5  D5
|-------------------------|
|-------------------------|
|-9-------7-------5---7---|
|-9---5---7---2---5---7---|
|-7---5---5---2---3---5---|
|-----3-------0-----------|

then comes the INTRO again.

then the VERSE and CHORUS. the 2nd guitar comes in here with some short riff,
im not sure what it is yet.

then theres the outro thing with the woman singing, some open chords are strummed
here, they sound like Em D C G maybe, im not sure, didnt pay much attention to this
part. il correct it later.

rate it and whatever if u want.


NOFX albums
2003 War on Errorism
2000 Pump Up the Valuum
1997 So Long And Thanks For All The Shoes
1996 Heavy Petting Zoo
1995 I Heard They Suck Live!!
1994 Punk in Drublic
1993 The Longest Line
1993 White Trash, Two Heebs & A Bean
1991 Ribbed
1989 S & M Airlines
War on Errorism tabs
01The Separation of Church and Skate tabbass tab
02The Irrationality of Rationality tabbass tab
03Franco Un-American tabbass tab
04Idiots Are Taking Over tabbass tab
05She's Nubs tabbass tab
06Mattersville tabbass tab
07Decom-poseur tabbass tab
08Medio-core tabbass tab
09Anarchy Camp tabbass tab
10American Errorist (I Hate Hate Haters) tabbass tab
11We Got Two Jealous Agains tabbass tab
1213 Stitches tabbass tab
13Re-gaining Unconsciousness tabbass tab
14Whoops, I OD'd tabbass tab

 

1