Search tabs:
Browse artists: 0-9 | A | B | C | D | E | F | G | H | I | J | K | L | M | N | O | P | Q | R | S | T | U | V | W | X | Y | Z
/ NOFX / War on Errorism (2003) / Medio-core guitar tab

still tabbed by seb Delecroix

E--------3----3----------------3----3-------|
B--3--3-2--2-1--1-3-3----3--3-2--2-1--1-3---|
G-0--0-0--0-0--0-0------0--0-0--0-0--0-0----|
D-------------------------------------------|
A-------------------------------------------|
E-------------------------------------------|
:
# Verse #B  “acoustic but with large eco!”
E--3---3--3-3-3---3---3--3--3--3-|
B--3---4--4-4-3---3---3--3--4--4-|
G--4---5--5-5-4---3---5--5--5--5-|     #Guitar A is quiet!
D--5---5--5-5-5---5---5--5--5--5-|
A--5---3--3-3-5---5---3--3--3--3-|
E--------------------------------|
   G   Cm     G   GM  C     Cm
:
# Verse2 #A&B  (Distorsion!) Play all notes 3x (the last something different!)
E-----------------|
B-----------------|
G----7-----5--7---|
D-5--7--7--5--7---|
A-5--5--7--3--5---|
E-3-----5---------|
:
# Chorus #A&B  *=8x                   /Distorsion and play 8x\
E-3--3--5--3--------------------------------3--|
B-3--3--5--3--------------------------------4--|                   E----|
G-4--5--7--5------------------7-7-7-------5-5--|                   B----|
D-5--5--7--5--5-5-5-5-5-5-5-5-7-7-5---5-3-5-5--|                   G----|
A-5--5--5--3--5-5-5-5-5-5-5-5-5-5-5---5-3-3-3--|                   D----|
E--*--*--*--*-3-3-3-3-3-3-3-3---------3-1------|                   A----|
  G  GM D  C                                 Here Guit.B play only E-1--|
:
# Verse3 #B  “acoustic but with large eco!”
E--3---3--3--3---3---3--3--|
B--3---4--4--3---3---3--4--|
G--4---5--5--4---3---3--5--|     #Guitar A is quiet!
D--5---5--5--5---5---5--5--|
A--5---3--3--5---5---5--3--|
E--------------------------|
   G   Cm    G   GM     Cm
:
#Cool Riff!! #A        /=palm-muted with some ring exept for the 2 last notes!
E------------------------------------------------|
B------------------------------------------------|
G-------8-8-8-------10-10-10---------------------|
D-5-5-5-8-8-8-8-8-8-10-10-10-12-12-9-7-5-7-------|
A-5-5-5-6-6-6-8-8-8-8--8--8--10-9--7-5-3-5-------|
E-3-3-3-------6-6-6----------\-----------/-------|
:
#Cool Riff!! #B         %=Pause     <<<=pick slide
E------------------------------------------------|
B------------------------------------------------|
G-------8-8-8-------10-10-10-%--%----------------|
D-5-5-5-8-8-8-8-8-8-10-10-10-%--%----------<<<---|
A-5-5-5-6-6-6-8-8-8-8--8--8--%--%0/7-5-3-5--<<<--|
E-3-3-3-------6-6-6--------------------------<<<<|


# Chorus #A   *=play 6x                                                          2\2
E----------3*----------3*----|
B----------4---------*-4-----|
G--*--*-5*-5---*--*-5--5-----|
D-5--3--5--5--5--3--5--5-----|
A-5--3--3--3--5--3--3--3-----|
E-3--1--------3--1-----------|
:
# Chorus #B  *=play 6x
E----------3*-------------------------------------------------|
B----------4--12--12-10-8-12--12-10-8--13---12-10-8--8--------|
G--*----5*-5--x---x--x--x-x---x--x--x--x----x--x--x--x--------|
D-5-----5--5--9---9--7--5-9---9--7--5--10---9--7--5--5--------|
A-5---*-3--3---------------------------------------------<<---|
E-3--1----------------------------------------------------<<<-|
:                like on the first chorus!
#Chorus #A&B    *=6x
E--------------------|
B-----*-----*--*-----|
G--*-7---*-5--7--7\--|
D-5--7--7--5--7--7\--|
A-5--5--7--3--5--5\--|
E-3-----5------------|
:
# End #B /Acoustic\  *=8x
E--3--5--3--5--3--5--3--5--3--5--|
B--3--5--3--5--3--5--4--5--4--5--|
G--4--7--4--7--4--7--5--7--5--7--|    #Guitar A is quiet!
D--5--7--5--7--5--7--5--7--5--7--|
A--5--5--5--5--5--5--3--5--3--5--|
E---*--*--*--*--*--*--*----------|
   G  D  G  D  G  D  G  D  G  D
:
#End2 #A&B   *=play 4x
E-----------|
B-----*-----|
G--*-7---*--|
D-5--5--5---|
A-5--5--5---|
E-3-----3---|


NOFX albums
2003 War on Errorism
2000 Pump Up the Valuum
1997 So Long And Thanks For All The Shoes
1996 Heavy Petting Zoo
1995 I Heard They Suck Live!!
1994 Punk in Drublic
1993 The Longest Line
1993 White Trash, Two Heebs & A Bean
1991 Ribbed
1989 S & M Airlines
War on Errorism tabs
01The Separation of Church and Skate tabbass tab
02The Irrationality of Rationality tabbass tab
03Franco Un-American tabbass tab
04Idiots Are Taking Over tabbass tab
05She's Nubs tabbass tab
06Mattersville tabbass tab
07Decom-poseur tabbass tab
08Medio-core tabbass tab
09Anarchy Camp tabbass tab
10American Errorist (I Hate Hate Haters) tabbass tab
11We Got Two Jealous Agains tabbass tab
1213 Stitches tabbass tab
13Re-gaining Unconsciousness tabbass tab
14Whoops, I OD'd tabbass tab

 

1