Search tabs:
Browse artists: 0-9 | A | B | C | D | E | F | G | H | I | J | K | L | M | N | O | P | Q | R | S | T | U | V | W | X | Y | Z
/ NOFX / War on Errorism (2003) / Re-gaining Unconsciousness guitar tab

Nofx - Re-gaining Unconsciousness
Submitted By: hoobastank_182__
EMail: no_parking182@hotmail.com


Standard Tuning: E A D G B e

Intro:
e|--------------------------------------------------|
B|--------------------------------------------------|
G|---------1212x-7x---------------------------------|
D|--77x777-1212x-7x---------------------------------|
A|--77x777-1010x-5x---------------------------------|
E|--55x555------------------------------------------|

Verse:
e|--------------------------------------------------|
B|--------------------------------------------------|
G|---------------------------7xxx7x7x---------------|
D|--77xxx7x7x-1010xxx10x10x-7xxx7x7x-7xxx7x7x------|
A|--77xxx7x7x-1010xxx10x10x--5xxx5x5x-7xxx7x7x------|
E|--55xxx5x5x-8-8-xxx8-x8-x-----------5xxx5x5x------|

e|--------------------------------------------------|
B|--------------------------------------------------|
G|-------9999------7777--------------7--------------|
D|--7777 9999-9999-7777--777----999--7--------------|
A|--7777-7777-9999-5555--777-77-999--5--------------|
E|--5555------7777-------555-44-777-----------------|

e|--------------------------------------------------|
B|--------------------------------------------------|
G|--------------------------------------------------|
D|--777-------555-----------------------------------|
A|--777--777--555-555-------------------------------|
E|--555--444--333-222-------------------------------|


e|--------------------------------------------------|
B|--------------------------------------------------|
G|-------999------777---------------------777-------|
D|--777--999--999-777------777-------444--777-------|
A|--777--777--999-555------777--777--444--555-------|
E|--555-------777----------555--444--222------------|


e|--------------------------------------------------|
B|--------------------------------------------------|
G|-----------------77/1010--------------------------|
D|--777-------999--77/1010--------------------------|
A|--777--777--999--55/8-8---------------------------|
E|--555--444--777-----------------------------------|

e|--------------------------------------------------|
B|--------------------------------------------------|
G|----------------77/1010-----------------7---10----|
D|-777-------444-77/1010--777-------444--7---10-7--|
A|-777--777--444-55/8-8---777--777--444--5---8--7--|
E|-555--444--222-----------555--444--222---------5--|

Outro:
e|--------------------------------------------------|
B|--------------------------------------------------|
G|--2--------2--------------------------------------|
D|----2---2-----------------------------------------|
A|------4-------------------------------------------|
E|--------------------------------------------------|


NOFX albums
2003 War on Errorism
2000 Pump Up the Valuum
1997 So Long And Thanks For All The Shoes
1996 Heavy Petting Zoo
1995 I Heard They Suck Live!!
1994 Punk in Drublic
1993 The Longest Line
1993 White Trash, Two Heebs & A Bean
1991 Ribbed
1989 S & M Airlines
War on Errorism tabs
01The Separation of Church and Skate tabbass tab
02The Irrationality of Rationality tabbass tab
03Franco Un-American tabbass tab
04Idiots Are Taking Over tabbass tab
05She's Nubs tabbass tab
06Mattersville tabbass tab
07Decom-poseur tabbass tab
08Medio-core tabbass tab
09Anarchy Camp tabbass tab
10American Errorist (I Hate Hate Haters) tabbass tab
11We Got Two Jealous Agains tabbass tab
1213 Stitches tabbass tab
13Re-gaining Unconsciousness tabbass tab
14Whoops, I OD'd tabbass tab

 

1