Search tabs:
Browse artists: 0-9 | A | B | C | D | E | F | G | H | I | J | K | L | M | N | O | P | Q | R | S | T | U | V | W | X | Y | Z
/ NOFX / War on Errorism (2003) / She's Nubs guitar tab

Band:Nofx
Song:she's nubs
Album:War on Errorism
Tabbed by:Vito Zaccagnino e Dario Balducci





            Have Fun

            e|2-0----2-0-0--2-0----------------------------------------------------------|

            B|3-2----3-2-0--3-2----------------------------------------------------------|

            G|2-2-x2-2-2-1--2-2-x2---7--9------------------------------------------------|

            D|0-2----0-2-2--0-2------7--9-----7-7777777777777777-------------------------|

            A|--0------0-2----0------5--7-----7-7777777777777777--x4---------------------|

            E|-----------0--------------------5-5555555555555555-------------------------|

            \ clean / \ dist. / \ p.m. /


            e|--------------------------------------------------------------------------|

            B|--------------------------------------------------------------------------|

            G|-7---7---7---9-----7---7---7-9--------------------------------------------|

            D|-7-7-7-7-7-7-9-----7-7-7-7-7-9-7------------------------------------------|

            A|-5-7-5-7-5-7-7-----5-7-5-7-5-7-7------------------------------------------|

            E|---5---5---5---------5---5-----5------------------------------------------|


            e|--------------------------------------------------------------------------|

            B|--------------------------------------------------------------------------|

            G|-7---7---7---9-----7---7---7-9--------------------------------------------|

            D|-7-7-7-7-7-7-9-----7-7-7-7-7-9-7------------------------------------------|

            A|-5-7-5-7-5-7-7-----5-7-5-7-5-7-7------------------------------------------|

            E|---5---5---5---------5---5-----5------------------------------------------|

            \ P.M. /
            SOLO
            e|-5-5-5--------5-5-5-----------5-5-5----------------------------------------|

            B|-5-5-5--------5-5-5-----------5-5-5----------------------------------------|

            G|-------7p6h7----------7p6h7--------7p6h7--5-7^-7^-7^-7^-7-5----------------|

            D|-----------7---------------7------------7----------------------------------|

            A|---------------------------------------------------------------------------|

            E|---------------------------------------------------------------------------|

            SOLO cont.
            e|---------------------------------------------------------------------------|

            B|---------------------------------------------------------------------------|

            G|---------------------------------------------------------------------------|

            D|--7-7-7---------7-7-7---5--7-----7-7-7-------------------------------------|

            A|--------7-6-5---------7----------------7-6-5-3-0---------------------------|

            E|--------------------------------------------------<<<<<<<------------------|


            e|---------------------------------------------------------------------------|

            B|---------------------------------------------------------------------------|

            G|------------------7-7-7-7-7-7-7-7-----------------9-9-9-9-9-9-9-9----------|

            D|-4-4-4-4-4-4-4-4--7-7-7-7-7-7-7-7-7-7-7-7-7-7-7-7-9-9-9-9-9-9-9-9----------|

            A|-4-4-4-4-4-4-4-4--5-5-5-5-5-5-5-5-7-7-7-7-7-7-7-7-7-7-7-7-7-7-7-7----------|

            E|-2-2-2-2-2-2-2-2------------------5-5-5-5-5-5-5-5--------------------------|

            \ p.m. /

            e|---------------------------------------------------------------------------|

            B|---------------------------------------------------------------------------|

            G|------------------7-7-7-7-7-7-7-7-7-7-7-7-7-7-7-7-9-9-9-9-9-9-9-9----------|

            D|-4-4-4-4-4-4-4-4--7-7-7-7-7-7-7-7-7-7-7-7-7-7-7-7-9-9-9-9-9-9-9-9-7-7-7-7-7|

            A|-4-4-4-4-4-4-4-4--5-5-5-5-5-5-5-5-5-5-5-5-5-5-5-5-7-7-7-7-7-7-7-7-7-7-7-7-7|

            E|-2-2-2-2-2-2-2-2--------------------------------------------------5-5-5-5-5|

            \ p.m. /

            e|--------------------------------------------------------------------------|

            B|--------------------------------------------------------------------------|

            G|-7---7---7---9-----7---7---7-9--------------------------------------------|

            D|-7-7-7-7-7-7-9-----7-7-7-7-7-9-7------------------------------------------|

            A|-5-7-5-7-5-7-7-----5-7-5-7-5-7-7------------------------------------------|

            E|---5---5---5---------5---5-----5------------------------------------------|

            \ P.M. /


            e|--------------------------------------------------------------------------|

            B|--------------------------------------------------------------------------|

            G|-7---7---7---9-----7---7---7-9--------------------------------------------|

            D|-7-7-7-7-7-7-9-----7-7-7-7-7-9-7------------------------------------------|

            A|-5-7-5-7-5-7-7-----5-7-5-7-5-7-7------------------------------------------|

            E|---5---5---5---------5---5-----5------------------------------------------|


            e|2-0----2-0-0--2-0-----------------------------|
            B|3-2----3-2-0--3-2-----------------------------|
            G|2-2-x2-2-2-1--2-2-x2---7--9-------------------|
            D|0-2----0-2-2--0-2------7--9-----7-7-7-7-7-----|
            A|--0------0-2----0------5--7-----7-7-7-7-7-----|
            E|-----------0--------------------5-5-5-5-5-----|
            \ clean / \ dist. /


NOFX albums
2003 War on Errorism
2000 Pump Up the Valuum
1997 So Long And Thanks For All The Shoes
1996 Heavy Petting Zoo
1995 I Heard They Suck Live!!
1994 Punk in Drublic
1993 The Longest Line
1993 White Trash, Two Heebs & A Bean
1991 Ribbed
1989 S & M Airlines
War on Errorism tabs
01The Separation of Church and Skate tabbass tab
02The Irrationality of Rationality tabbass tab
03Franco Un-American tabbass tab
04Idiots Are Taking Over tabbass tab
05She's Nubs tabbass tab
06Mattersville tabbass tab
07Decom-poseur tabbass tab
08Medio-core tabbass tab
09Anarchy Camp tabbass tab
10American Errorist (I Hate Hate Haters) tabbass tab
11We Got Two Jealous Agains tabbass tab
1213 Stitches tabbass tab
13Re-gaining Unconsciousness tabbass tab
14Whoops, I OD'd tabbass tab

 

1