Search tabs:
Browse artists: 0-9 | A | B | C | D | E | F | G | H | I | J | K | L | M | N | O | P | Q | R | S | T | U | V | W | X | Y | Z
/ NOFX / War on Errorism (2003) / The Irrationality of Rationality guitar tab

Band:Nofx
Song:irrationality of rationality
Album:War on Errorism
Tabbed by:Vito Zaccagnino e Dario Balducci

intro
|------------------|
|------------------|
|-----------10-----|
|----7---5--10--5--| x4
|----7---5--8---5--|
|----5---3------3--|


verse1
|--0-------0------1--1---|
|--1-------1------1--1---|
|--2-------0------2--2---|
|--2-------2------3--3---|
|--0-------3-------------|
|------------------------|

intro x2
verse1

verse2
|-------------------------|
|-------------------------|
|------------10-----------|
|---10---7---10----10-----|
|---10---7---8-----10-----|
|---8----5---------8------|

chorus
|-----------------------------|
|-----------------------------|
|-------12---10-----------12--|
|--10---12---10--10--10---12--|
|--10---10---8---10--10---10--|
|--8-------------8---8--------|

outro
|-----------------------------|
|-----------------------------|
|-----10----------------------|
|--5--10--5--7----------------|
|--5--8---5--7----------------|
|--3------3--5----------------|


NOFX albums
2003 War on Errorism
2000 Pump Up the Valuum
1997 So Long And Thanks For All The Shoes
1996 Heavy Petting Zoo
1995 I Heard They Suck Live!!
1994 Punk in Drublic
1993 The Longest Line
1993 White Trash, Two Heebs & A Bean
1991 Ribbed
1989 S & M Airlines
War on Errorism tabs
01The Separation of Church and Skate tabbass tab
02The Irrationality of Rationality tabbass tab
03Franco Un-American tabbass tab
04Idiots Are Taking Over tabbass tab
05She's Nubs tabbass tab
06Mattersville tabbass tab
07Decom-poseur tabbass tab
08Medio-core tabbass tab
09Anarchy Camp tabbass tab
10American Errorist (I Hate Hate Haters) tabbass tab
11We Got Two Jealous Agains tabbass tab
1213 Stitches tabbass tab
13Re-gaining Unconsciousness tabbass tab
14Whoops, I OD'd tabbass tab

 

1