Search tabs:
Browse artists: 0-9 | A | B | C | D | E | F | G | H | I | J | K | L | M | N | O | P | Q | R | S | T | U | V | W | X | Y | Z
/ NOFX / War on Errorism (2003) / The Separation of Church and Skate guitar tab

Artist: NoFX
Title:  The Seperation of Church and Skate
Album:  War On Errorism

Tuning: E A D G B e

Guitar Notation:
h   hammer-on
p   pull-off
^   bend
..  palm mute(pm)
~   let ring
\ps/Pick Slide

w/ wah  use wah pedal

Intro
  / - - - -x3 - - - -\
e|--------------------|--------------------|
B|--------------------|--------------------|
G|--------------------|--------------------|
D|--------------------|--------------------|  x4.5
A|--0--5-5--3-3--5-5--|--0-0--7---0-0--6---|
E|--------------------|--------------------|
Repeat this 4 times and on the 5th time, repeat just the first bar 3 times

Intro pt.2
e|-----------------------------------------|
B|-----------------------------------------|
G|-----------------------------------------|
D|-----------------------------------------|  x4
A|--0-0--7---0-0--6---0-0--5-5--3-3--5-5---|
E|-----------------------------------------|
 |                                         |
 | Guitar 2                                |
e|-----------------------------------------|
B|-----------------------------------------|
G|-----------5~----------------7~----------|
D|--7~-------5~-------5~-------7~----------|
A|--7~-------3~-------5~-------5~----------|
E|--5~----------------3~-------------------|
                                    \ ps /
Pre-Verse
  / - - - - - - - - -x3 - - - - - - - - - \
e|-----------------------------------------|------------------------------|
B|-----------------------------------------|------------------------------|
G|-----------------------------------------|------------------------------|
D|-----------------------------------------|------------------------------|  x1
A|--0-0--7---0-0--6---0-0--5-5--3-3--5-5---|--0-0--7---0-0--6-------------|
E|-----------------------------------------|--------------------3--5-5-5--|

Verse
e|-------------------------------|-------------------|
B|-------------------------------|-------------------|
G|----------------5555-----------|-------------------|
D|--77777777-3333-5555-55555555--|-------------------|
A|--77777777-3333-3333-55555555--|--0-0--7---0-0--6--|
E|--55555555-1111------33333333--|-------------------|
 PM ........ .... .... ........  PM . .  .   . .  .
 (Lost in a sea of combat boots)

Verse (continued)
e|-------------------------------|---------|
B|-------------------------------|---------|
G|----------------5555-----------|---------|
D|--77777777-3333-5555-55555555--|--7---7--|
A|--77777777-3333-3333-55555555--|--7---7--|
E|--55555555-1111------33333333--|--5---5--|
 PM ........ .... .... ........
 (Flush the bouncers with wasted youth)

Chorus
e|------------------------------------------------------------------------|
B|------------------------------------------------------------------------|
G|------------------------------------5555555555555555--------------------|
D|--7777777777777777-3333333333333333-5555555555555555-55555555-66666666--|
A|--7777777777777777-3333333333333333-3333333333333333-55555555-66666666--|
E|--5555555555555555-1111111111111111------------------33333333-44444444--|
 (When did punk rock become so safe...)
                                                                     / - - - -x4 - - - -\
e|------------------------------------------------------------------|--------------------|
B|------------------------------------------------------------------|--------------------|
G|------------------------------------5555555555555555--------------|--------------------|
D|--7777777777777777-3333333333333333-5555555555555555-77777777--9--|--1010101010101010--|
A|--7777777777777777-3333333333333333-3333333333333333-77777777--9--|--1010101010101010--|
E|--5555555555555555-1111111111111111------------------55555555--7--|--8888888888888888--|
 (Cursing and flipping birds are not allowed...)

Pre-Verse 2
  / - - - - - - - - -x3 - - - - - - - - - \
e|-----------------------------------------|---------------|
B|-----------------------------------------|---------------|
G|-----------------------------------------|---------------|
D|-----------------------------------------|---------------|  x1
A|--0-0--7---0-0--6---0-0--5-5--3-3--5-5---|--0--7---0--6--|
E|-----------------------------------------|---------------|

*Repeat Verse*
 (Why dont we put pads on the kids...)

*Repeat Chorus*
 (Then we could pad the floors and walls...)

Interlude (acustic)
e|--------1-----3-----1----------1-----0---|
B|--------3-----3-----3-----1----1-----1---|
G|--5-----2-----0-----2-----2----2-----0---|
D|--5-----0-----0-----0-----2----3-----2---|
A|--3-----------2-----------0----3-----3---|
E|--3-----------3--------------------------|
 (When did punk rock become so safe...)

e|-----------------------------------------|
B|-----------------------------------------|
G|---------------101010101010101010101010--|
D|--777777777777-101010101010101010101010--|
A|--777777777777--8-8-8-8-8-8-8-8-8-8-8-8--|
E|--555555555555---------------------------|
 PM ............  . . . . . . . . . . . .

Solo w/ wah
e|--12-12-10-------12^---10------------12p10------------------------------------|
B|-----------13p10---------13-13h17^---------13--13^-10-13-10-13-10------8^-----|
G|------------------------------------------------------------------5-8----8-8--|
D|------------------------------------------------------------------------------|
A|------------------------------------------------------------------------------|
E|------------------------------------------------------------------------------|

Solo (continued)
e|--------------------------------------------------------|
B|--------------------------------------------------------|
G|--10-10-7-10-10-7-10-10-7-10-12-------------------------|
D|--------------------------------10-10-7-10-7-10-7-10-7--|
A|--------------------------------------------------------|
E|--------------------------------------------------------|

*Repeat Intro pt.2 (4x)*

Verse 3
e|-------------------------------|-------------------|
B|-------------------------------|-------------------|
G|----------------5555-----------|-------------------|
D|--77777777-3333-5555-55555555--|-------------------|
A|--77777777-3333-3333-55555555--|--0-0--7---0-0--6--|
E|--55555555-1111------33333333--|-------------------|
 PM ........ .... .... ........
 (I want conflict I want dissent)

Verse (continued)
e|----------------------------------|
B|----------------------------------|
G|----------------5555--------------|
D|--77777777-3333-5555--5--4--5--7--|
A|--77777777-3333-3333--5--4--5--7--|
E|--55555555-1111-------3--2--3--5--|
 PM ........ .... ....
 (I want the scene to represent)

Chorus
e|------------------------------------------------------------------------|
B|------------------------------------------------------------------------|
G|------------------------------------5555555555555555--------------------|
D|--7777777777777777-3333333333333333-5555555555555555-55555555-66666666--|
A|--7777777777777777-3333333333333333-3333333333333333-55555555-66666666--|
E|--5555555555555555-1111111111111111------------------33333333-44444444--|
 (Our hatred of authority, our fight against complacency...)
 (Confrontation and politics replaced with harmonies and sticks...)
 (We want our fights we want our thugs...)

e|------------------------------------------------------------------------|
B|------------------------------------------------------------------------|
G|------------------------------------9--10101010101010101010101010101010-|
D|--77777777777777777777777777777777--9--10101010101010101010101010101010-|
A|--77777777777777777777777777777777--7--88888888888888888888888888888888-|
E|--55555555555555555555555555555555--------------------------------------|
 (Rated G!!!!!!!!!!!!!!!!!!!!!!!!!!!!! When did punk rock become so safe)

Outro
  /- - - - - x4 - - - - \
e|-----------------------|-----------|
B|-----------------------|-----------|
G|-----------------------|-----------|
D|-----------------------|--77---77--|
A|--0-0-0-30-----0-30----|--77---77--|
E|-----------3-2------3--|--55---55--|

        /- - - - -x3 - - - - \
e|-----|----------------------|------|
B|-----|----------------------|------|
G|-----|----------------------|------|
D|-----|----------------------|--77--|
A|--0--|-0-0-0-30-----0-30----|--77--|
E|-----|----------3-2------3--|--55--|


NOFX albums
2003 War on Errorism
2000 Pump Up the Valuum
1997 So Long And Thanks For All The Shoes
1996 Heavy Petting Zoo
1995 I Heard They Suck Live!!
1994 Punk in Drublic
1993 The Longest Line
1993 White Trash, Two Heebs & A Bean
1991 Ribbed
1989 S & M Airlines
War on Errorism tabs
01The Separation of Church and Skate tabbass tab
02The Irrationality of Rationality tabbass tab
03Franco Un-American tabbass tab
04Idiots Are Taking Over tabbass tab
05She's Nubs tabbass tab
06Mattersville tabbass tab
07Decom-poseur tabbass tab
08Medio-core tabbass tab
09Anarchy Camp tabbass tab
10American Errorist (I Hate Hate Haters) tabbass tab
11We Got Two Jealous Agains tabbass tab
1213 Stitches tabbass tab
13Re-gaining Unconsciousness tabbass tab
14Whoops, I OD'd tabbass tab

 

1