Search tabs:
Browse artists: 0-9 | A | B | C | D | E | F | G | H | I | J | K | L | M | N | O | P | Q | R | S | T | U | V | W | X | Y | Z
/ NOFX / War on Errorism (2003) / We Got Two Jealous Agains guitar tab

NOFX - We Got Two Jealous Agains
Tabbed By: devin
Email: super_d_man2000@hotmail.com

Tuning: Standard (E A D G B E)



NOFX-We Got Two Jealous Agains
The War On Errorism

 This tab is pretty long and confusing because most of the riffs get
played over and over but in a different order, so it helps to listen
to the song.

  Intro
 Guitar 1
E|----------------|----------------|----------------|----------------||
B|----------------|----------------|----------------|----------------||
G|----------------|----------------|----------------|----------------||
D|-7-7-7-7-7-7-7-7|-7-7-7-7-7-7-7-7|-7-7-7-7-7-7-7-7|----------------||
A|-7-7-7-7-7-7-7-7|-7-7-7-7-7-7-7-7|-7-7-7-7-7-7-7-7|----------------||
E|-5-5-5-5-5-5-5-5|-5-5-5-5-5-5-5-5|-5-5-5-5-5-5-5-5|----------------||
 Guitar 2
E|----------------|----------------|----------------|----------------||
B|----------------|----------------|----------------|----------------||
G|----------------|----------------|----------------|----------------||
D|----------------|----------------|-5--/7---5---7--|-7b9~-------(9)-||
A|----------------|----------------|-5--/7---5---7--|-7b9~-------(9)-||
E|----------------|----------------|----------------|----------------||

  1st Verse - Riff 1
 Guitar 1 (Play Twice)
E|----------------|----------------|----------------|----------------||
B|----------------|----------------|----------------|----------------||
G|----------------|----------------|----------------|-5---5/7--------||
D|-7-7-7-7-7-7-7-7|-3-3-3-3-3-3-3-3|-5-5-5-5-5-5-5-5|-5-5-5/7-7------||
A|-7-7-7-7-7-7-7-7|-3-3-3-3-3-3-3-3|-5-5-5-5-5-5-5-5|-3-5-3/5-7------||
E|-5-5-5-5-5-5-5-5|-1-1-1-1-1-1-1-1|-3-3-3-3-3-3-3-3|---3-----5------||
 Guitar 2 (First time)
E|----------------|----------------|----------------|----------------||
B|----------------|----------------|----------------|----------------||
G|----------------|----------------|----------------|----------------||
D|----------------|----------------|----------------|-----------7/5~-||
A|----------------|----------------|----------------|-----------7/5~-||
E|----------------|----------------|----------------|----------------||
 Guitar 2 (Second time)
E|----------------|----------------|----------------|----------------||
B|----------------|----------------|----------------|----------------||
G|----------------|----------------|----------------|----------------||
D|----------------|----------------|----------------|-----------13b14||
A|----------------|----------------|----------------|-----------13b14||
E|----------------|----------------|----------------|----------------||
 1st Verse - Riff 2
 Guitars 1 and 2
E|----------------|----------------|----------------|----------------||
B|----------------|----------------|----------------|----------------||
G|----------------|-1010101010101010----------------|----------------||
D|-7-7-7-7-7-7-7-7|-1010101010101010-5-5-5-5-5-5-5-5|-7-7-7-7-7-7-7-7||
A|-7-7-7-7-7-7-7-7|-8-8-8-8-8-8-8-8|-5-5-5-5-5-5-5-5|-7-7-7-7-7-7-7-7||
E|-5-5-5-5-5-5-5-5|----------------|-3-3-3-3-3-3-3-3|-5-5-5-5-5-5-5-5||
  1st Chorus - Riff 1
 Guitars 1 and 2
E|----------------|----------------|----------------|----------------||
B|----------------|----------------|----------------|----------------||
G|----------------|-5-5-5-5-5-5-5-5|----------------|----------------||
D|-3-3-3-3-3-3-3-3|-5-5-5-5-5-5-5-5|-3-3-3-3-3-3-3-3|-5-5-5-5-5-5-5-5||
A|-3-3-3-3-3-3-3-3|-3-3-3-3-3-3-3-3|-3-3-3-3-3-3-3-3|-5-5-5-5-5-5-5-5||
E|-1-1-1-1-1-1-1-1|----------------|-1-1-1-1-1-1-1-1|-3-3-3-3-3-3-3-3||
 Guitars 1 and 2 - Riff 2
E|----------------|----------------|----------------|----------------||
B|----------------|----------------|----------------|----------------||
G|-5555----5555---|-5555---------5-|-5555----5555---|-5555---------5-||
D|-55557/6-55556/5|-55557/6--3/5-5-|-55557/6-55556/5|-55557/6--3/5-5-||
A|-33337/6-33336/5|-33337/6--3/5-3-|-33337/6-33336/5|-33337/6--3/5-3-||
E|-----5/4-----4/3|-----5/4--1/3---|-----5/4-----4/3|-----5/4--1/3---||
   PM--    PM--     PM--             PM--    PM--     PM--

  2nd Verse - Riff 1
 Guitar 1
E|----------------|----------------|----------------|----------------||
B|----------------|----------------|----------------|----------------||
G|-5-5-5-5-5-5-5-5|----------------|----------------|----------------||
D|-5-5-5-5-5-5-5-5|-5-5-5-5-5-5-5-5|-7-7-7-7-7-7-7-7|-3-3-3-3-3-3-3-3||
A|-3-3-3-3-3-3-3-3|-5-5-5-5-5-5-5-5|-7-7-7-7-7-7-7-7|-3-3-3-3-3-3-3-3||
E|----------------|-3-3-3-3-3-3-3-3|-5-5-5-5-5-5-5-5|-1-1-1-1-1-1-1-1||
 Guitar 2
E|----------------|----------------|----------------|----------------||
B|----------------|----------------|----------------|----------------||
G|----------------|----------------|----------------|----------------||
D|----------------|----------------|----------------|----------------||
A|----------------|----------------|-5-/-7---4--5---|-7---5---4~-----||
E|----------------|----------------|----------------|----------------||
 Guitars 1 and 2 - Riff 2
E|----------------|----------------|----------------|----------------||
B|----------------|----------------|----------------|----------------||
G|----------------|-5-5-5-5-5-5-5-5|----------------|----------------||
D|-3-3-3-3-3-3-3-3|-5-5-5-5-5-5-5-5|-3-3-3-3-3-3-3-3|-5-5-5-5-5-5-5-5||
A|-3-3-3-3-3-3-3-3|-3-3-3-3-3-3-3-3|-3-3-3-3-3-3-3-3|-5-5-5-5-5-5-5-5||
E|-1-1-1-1-1-1-1-1|----------------|-1-1-1-1-1-1-1-1|-3-3-3-3-3-3-3-3||
 Guitars 1 and 2 - Riff 3
E|----------------|----------------|----------------|----------------||
B|----------------|----------------|----------------|----------------||
G|-5-5-5-5-5-5-5-5|----------------|----------------|-9-9-9-9-9-9-9-9||
D|-5-5-5-5-5-5-5-5|-5-5-5-5-5-5-5-5|-7-7-7-7-7-7-7-7|-9-9-9-9-9-9-9-9||
A|-3-3-3-3-3-3-3-3|-5-5-5-5-5-5-5-5|-7-7-7-7-7-7-7-7|-7-7-7-7-7-7-7-7||
E|----------------|-3-3-3-3-3-3-3-3|-5-5-5-5-5-5-5-5|----------------||
 Guitars 1 and 2 - Riff 2
E|----------------|----------------|----------------|----------------||
B|----------------|----------------|----------------|----------------||
G|----------------|-5-5-5-5-5-5-5-5|----------------|----------------||
D|-3-3-3-3-3-3-3-3|-5-5-5-5-5-5-5-5|-3-3-3-3-3-3-3-3|-5-5-5-5-5-5-5-5||
A|-3-3-3-3-3-3-3-3|-3-3-3-3-3-3-3-3|-3-3-3-3-3-3-3-3|-5-5-5-5-5-5-5-5||
E|-1-1-1-1-1-1-1-1|----------------|-1-1-1-1-1-1-1-1|-3-3-3-3-3-3-3-3||
  2nd Chorus - Riff 1
 Guitar 1
E|----------------|----------------|----------------|----------------||
B|----------------|----------------|----------------|----------------||
G|----------------|----------------|----------------|----------------||
D|-5-5-5-5-5-5-5-5|-5-5-5-5-5-5-5-5|-5-5-5-5-5-5-5-5|-5-5-5-5-5-5-5-5||
A|-5-5-5-5-5-5-5-5|-5-5-5-5-5-5-5-5|-5-5-5-5-5-5-5-5|-5-5-5-5-5-5-5-5||
E|-3-3-3-3-3-3-3-3|-3-3-3-3-3-3-3-3|-3-3-3-3-3-3-3-3|-3-3-3-3-3-3-3-3||
 Guitar 2
E|----------------|----------------|----------------|----------------||
B|----------------|----------------|----------------|----------------||
G|----------------|-4---5---/---7~-|------------(7)-|----------------||
D|----------------|----------------|----------------|----------------||
A|----------------|----------------|----------------|----------------||
E|----------------|----------------|----------------|----------------||
 Guitars 1 and 2 - Riff 2
E|----------------|----------------|----------------|----------------||
B|----------------|----------------|----------------|----------------||
G|-5555----5555---|-5555---------5-|-5555----5555---|-5555----5------||
D|-55557/6-55556/5|-55557/6--3/5-5-|-55557/6-55556/5|-55557/6-5------||
A|-33337/6-33336/5|-33337/6--3/5-3-|-33337/6-33336/5|-33337/6-3------||
E|-----5/4-----4/3|-----5/4--1/3---|-----5/4-----4/3|-----5/4--------||
   PM--    PM--     PM--             PM--    PM--     PM--
  3rd Verse:
 -Play "2nd Verse - Riff 1"
 -Then play "2nd Verse -Riff 2"
 -Then play:
 Guitar 1
E|----------------|----------------|----------------|----------------||
B|----------------|----------------|----------------|----------------||
G|-5-5-5-5-5-5-5-5|----------------|----------------|----------------||
D|-5-5-5-5-5-5-5-5|-5-5-5-5-5-5-5-5|-6-6-6-6-6-6-6-6|-6-6-6-6-6-6-6-6||
A|-3-3-3-3-3-3-3-3|-5-5-5-5-5-5-5-5|-6-6-6-6-6-6-6-6|-6-6-6-6-6-6-6-6||
E|----------------|-3-3-3-3-3-3-3-3|-4-4-4-4-4-4-4-4|-4-4-4-4-4-4-4-4||
 Guitar 2
E|----------------|----------------|----------------|----------------||
B|----------------|----------------|----------------|----------------||
G|-5-5-5-5-5-5-5-5|----------------|-5-5-5-5-5-5-5-5|-5-5-5-5-5-5-5-5||
D|-5-5-5-5-5-5-5-5|-5-5-5-5-5-5-5-5|-x-x-x-x-x-x-x-x|-x-x-x-x-x-x-x-x||
A|-3-3-3-3-3-3-3-3|-5-5-5-5-5-5-5-5|-3-3-3-3-3-3-3-3|-3-3-3-3-3-3-3-3||
E|----------------|-3-3-3-3-3-3-3-3|----------------|----------------||
 -Then finsh 3rd Verse with "2nd Verse - Riff 2"
  Interlude/Bridge
 Guitar 1
E|----------------|----------------|----------------|----------------||
B|----------------|----------------|----------------|----------------||
G|----------------|----------------|----------------|----------------||
D|-5-5-5-5-5-5-5-5|-5-5-5-5-5-5-5-5|----------------|------------(5)-||
A|-5-5-5-5-5-5-5-5|-5-5-5-5-5-5-5-5|----------------|------------(5)-||
E|-3-3-3-3-3-3-3-3|-3-3-3-3-3-3-3-3|----------------|------------(3)-||
 Guitar 2
E|----------------|----------------|-/8----10---/12~|------------(12)||
B|----------------|----------------|----------------|----------------||
G|----------------|----------------|----------------|----------------||
D|----------------|----------------|----------------|----------------||
A|----------------|----------------|----------------|----------------||
E|----------------|----------------|----------------|----------------||
 Guitars 1 and 2
E|----------------|----------------|----------------|----------------||
B|----------------|----------------|----------------|----------------||
G|----------------|----------------|-5----------(5)-|----------------||
D|-7----------(7)-|-3----------(3)-|-5----------(5)-|-5----------(5)-||
A|-7----------(7)-|-3----------(3)-|-3----------(3)-|-5----------(5)-||
E|-5----------(5)-|-1----------(1)-|----------------|-3----------(3)-||
 Guitars 1 and 2
E|----------------|----------------|----------------|----------------||
B|----------------|----------------|----------------|----------------||
G|----------------|----------------|-5--------------|------------(5)-||
D|-7----------(7)-|-3----------(3)-|-5--------------|------------(5)-||
A|-7----------(7)-|-3----------(3)-|-3--------------|------------(3)-||
E|-5----------(5)-|-1----------(1)-|----------------|----------------||
  Ending:
 -Play "2nd Verse" and "2nd Chorus" again, and thats the end.


NOFX albums
2003 War on Errorism
2000 Pump Up the Valuum
1997 So Long And Thanks For All The Shoes
1996 Heavy Petting Zoo
1995 I Heard They Suck Live!!
1994 Punk in Drublic
1993 The Longest Line
1993 White Trash, Two Heebs & A Bean
1991 Ribbed
1989 S & M Airlines
War on Errorism tabs
01The Separation of Church and Skate tabbass tab
02The Irrationality of Rationality tabbass tab
03Franco Un-American tabbass tab
04Idiots Are Taking Over tabbass tab
05She's Nubs tabbass tab
06Mattersville tabbass tab
07Decom-poseur tabbass tab
08Medio-core tabbass tab
09Anarchy Camp tabbass tab
10American Errorist (I Hate Hate Haters) tabbass tab
11We Got Two Jealous Agains tabbass tab
1213 Stitches tabbass tab
13Re-gaining Unconsciousness tabbass tab
14Whoops, I OD'd tabbass tab

 

1