Search tabs:
Browse artists: 0-9 | A | B | C | D | E | F | G | H | I | J | K | L | M | N | O | P | Q | R | S | T | U | V | W | X | Y | Z
/ NOFX / War on Errorism (2003) / Whoops, I OD'd guitar tab

===============================================================================

  Band: NOFX
  Song: Whoops, I OD\'d
 Album: The War on Errorism (2003)


Tabbed by: Dave
Email: Used 1 4 8 1 2@aol.com

Tuning: Standard

| ~     Let Ring

OKAY, well there wasn\'t any correct tabs so I thought I\'d be nice and sumbit the totally correct one.
I don\'t really have the strumming patterns shown, but you can just listen to the song to get it.

Enjoy..


Intro
e|-----------------------------------------------------------------------------------------------|
B|-----------------------------------------------------------------------------------------------|
G|-4-4-44-4-5-555-55-777777777777---------------------------------9--9--9--9--7-7-7--5-5-5-------|
D|-5-5-55-5-5-555-55-555555555555-5-5-55-5-7-777-77-999999999999-10-10-10-10--9-9-9--7-7-7--5~~--| 1x
A|--------------------------------7-7-77-7-7-777-77-777777777777--0--0--0--0--0-0-0--0-0-0--3~~--|
E|-----------------------------------------------------------------------------------------------|

Verse 1
e|--------------------------------------------------------------------------------------------------------|
B|--------------------------------------------------------------------------------------------------------|
G|-4-4-44-4-5-555-55-777777777777---------------------------------9--9--9--9--7-7-7--5-5-5----------------|
D|-5-5-55-5-5-555-55-555555555555-5-5-55-5-7-777-77-999999999999-10-10-10-10--9-9-9--7-7-7--555555555555--| 1x
A|--------------------------------7-7-77-7-7-777-77-777777777777--0--0--0--0--0-0-0--0-0-0--333333333333--|
E|--------------------------------------------------------------------------------------------------------|

Fill
e|------------------------|
B|------------------------|
G|------------------------|
D|------5-4-5-4-----------| 1x
A|-5555-5-5-5-5-55555555--|
E|-3333---------33333333--|

Verse 1 Cont.
e|------------------------------------------------------------------------------------------------------------|
B|------------------------------------------------------------------------------------------------------------|
G|----------5-4-5-4-5-7--777777777777---------------------------------9--9--9--9--7-7-7--5-5-5----------------|
D|----------5-5-5-5-5-5--555555555555-5-5-55-5-7-777-77-999999999999-10-10-10-10--9-9-9--7-7-7--555555555555--| 1x
A|-5-5-55-5---------------------------7-7-77-7-7-777-77-777777777777--0--0--0--0--0-0-0--0-0-0--333333333333--|
E|-3-3-33-3---------------------------------------------------------------------------------------------------|

Fill
e|------------------------|
B|------------------------|
G|------------------------|
D|------5-4-5-4-----------| 1x
A|-5555-5-5-5-5-55555555--|
E|-3333---------33333333--|

Chorus
e|-----------------------------------------------------------------------------|
B|-----------------------------------------------------------------------------|
G|----------55555555----------00000000-22222222-55555555-4~~-4~~-4~~-4~~-3~~~--|
D|-77777777-55555555-55555555-22222222-22222222-55555555-5~~-5~~-5~~-5~~-5~~~--| 1x
A|-77777777-33333333-55555555-22222222-00000000-33333333-7~~-6~~-5~~-4~~-3~~~--|
E|-55555555----------33333333-00000000-----------------------------------------|

Verse 2
e|------------------------------------------------------------------------------------------------------------|
B|------------------------------------------------------------------------------------------------------------|
G|----------5-4-5-4-5-7--777777777777---------------------------------9--9--9--9--7-7-7--5-5-5----------------|
D|----------5-5-5-5-5-5--555555555555-5-5-55-5-7-777-77-999999999999-10-10-10-10--9-9-9--7-7-7--555555555555--| 1x
A|-5-5-55-5---------------------------7-7-77-7-7-777-77-777777777777--0--0--0--0--0-0-0--0-0-0--333333333333--|
E|-3-3-33-3---------------------------------------------------------------------------------------------------|

Fill
e|------------------------|
B|------------------------|
G|------------------------|
D|------5-4-5-4-----------| 1x
A|-5555-5-5-5-5-55555555--|
E|-3333---------33333333--|

Chorus
e|-----------------------------------------------------------------------------|
B|-----------------------------------------------------------------------------|
G|----------55555555----------00000000-22222222-55555555-4~~-4~~-4~~-4~~-3~~~--|
D|-77777777-55555555-55555555-22222222-22222222-55555555-5~~-5~~-5~~-5~~-5~~~--| 1x
A|-77777777-33333333-55555555-22222222-00000000-33333333-7~~-6~~-5~~-4~~-3~~~--|
E|-55555555----------33333333-00000000-----------------------------------------|

Bridge
e|---------------------------------------------------------------------------------------------------|
B|---------------------------------------------------------------------------------------------------|
G|----------5-4-5-4-5-7--777777777777---------------------------------9--9--9--9--7-7-7--5-5-5-------|
D|----------5-5-5-5-5-5--555555555555-5-5-55-5-7-777-77-999999999999-10-10-10-10--9-9-9--7-7-7--5~~--| 1x
A|-5-5-55-5---------------------------7-7-77-7-7-777-77-777777777777--0--0--0--0--0-0-0--0-0-0--3~~--|
E|-3-3-33-3------------------------------------------------------------------------------------------|

Verse 3
e|------------------------------------------------------------------------------------------------------------|
B|------------------------------------------------------------------------------------------------------------|
G|----------5-4-5-4-5-7--777777777777---------------------------------9--9--9--9--7-7-7--5-5-5----------------|
D|----------5-5-5-5-5-5--555555555555-5-5-55-5-7-777-77-999999999999-10-10-10-10--9-9-9--7-7-7--555555555555--| 1x
A|-5-5-55-5---------------------------7-7-77-7-7-777-77-777777777777--0--0--0--0--0-0-0--0-0-0--333333333333--|
E|-3-3-33-3---------------------------------------------------------------------------------------------------|

Fill
e|------------------------|
B|------------------------|
G|------------------------|
D|------5-4-5-4-----------| 1x
A|-5555-5-5-5-5-55555555--|
E|-3333---------33333333--|

Chorus/Outro
e|--------------------------------------------------------------3-3-3-3--7-7-7-7-----------------|
B|--------------------------------------------------------------3-3-3-3--6-6-6-6--------4--4~~~--|
G|----------55555555-4~~-4~~-4~~-4~~-3--------------------------4-4-4-4--7-7-7-7------5-5--5~~~--|
D|-77777777-55555555-5~~-5~~-5~~-5~~-5-5-5-5--2-2-2-2--5-5-5-5--5-5-5-5--7-7-7-7--5-5-5-5--5~~~--| 1x
A|-77777777-33333333-7~~-6~~-5~~-4~~-3-3-3-3--0-0-0-0--3-3-3-3--5-5-5-5-----------3-3-3-3--------|
E|-55555555-----------------------------------------------------3-3-3-3--------------------------|

===============================================================================


NOFX albums
2003 War on Errorism
2000 Pump Up the Valuum
1997 So Long And Thanks For All The Shoes
1996 Heavy Petting Zoo
1995 I Heard They Suck Live!!
1994 Punk in Drublic
1993 The Longest Line
1993 White Trash, Two Heebs & A Bean
1991 Ribbed
1989 S & M Airlines
War on Errorism tabs
01The Separation of Church and Skate tabbass tab
02The Irrationality of Rationality tabbass tab
03Franco Un-American tabbass tab
04Idiots Are Taking Over tabbass tab
05She's Nubs tabbass tab
06Mattersville tabbass tab
07Decom-poseur tabbass tab
08Medio-core tabbass tab
09Anarchy Camp tabbass tab
10American Errorist (I Hate Hate Haters) tabbass tab
11We Got Two Jealous Agains tabbass tab
1213 Stitches tabbass tab
13Re-gaining Unconsciousness tabbass tab
14Whoops, I OD'd tabbass tab

 

1