Search tabs:
Browse artists: 0-9 | A | B | C | D | E | F | G | H | I | J | K | L | M | N | O | P | Q | R | S | T | U | V | W | X | Y | Z
/ NOFX / White Trash, Two Heebs & A Bean (1993) / Johnny Appleseed guitar tab


Date: Thurs, October 16 1997
From: Peter Ferragine (iginition@yesic.com)
Group: NOFX
Album: White Trash, Two Heebs and a Bean
Track: 11
Title: johnny appleseed

h - hammer on
/ \ - slide


intro         

|--5------7------10------10-------9------7----7----|
|--5------7------10------10-------9------7----7----|
|--5------8------11------10-------9------8----8----|
|--7------9------12------12------11------9----9----|
|--7------9------12------12------11------9----9----|
|--5------7------10------10-------9------7----7----|

riff

|--------------------------|
|--------------------------|
|--------------------------|
|--------------------------|
|-0---h3/5-5-5-5-5-5-5-5-5-|
|--------------------------|

verse

|-9-9-9-9-9-9-9-9-7-7-7-7-7-7-7-7-10-10-10-10-10-10-10-10-5-5-5-5-5-5-5-5-5-|
|-9-9-9-9-9-9-9-9-7-7-7-7-7-7-7-7-10-10-10-10-10-10-10-10-5-5-5-5-5-5-5-5-5-|
|---------------------------------------------------------------------------|
|---------------------------------------------------------------------------|
|---------------------------------------------------------------------------|
|---------------------------------------------------------------------------|

chorus

|-------------------------------------------------------------
|-------------------------------------------------------------
|-11-11-11-11-11-11-11-11-11-11-11-11-4-4-4-4-4-4-4-4-4-4-4-4-
|-11-11-11-11-11-11-11-11-11-11-11-11-4-4-4-4-4-4-4-4-4-4-4-4-
|--9--9--9--9--9--9--9--9--9--9--9--9-2-2-2-2-2-2-2-2-2-2-2-2-
|-------------------------------------------------------------

 -------------------------------------------------|
 -------------------------------------------------|
 -7-7-7-7-7-7-7-7-7-7-7-7-------------------------|
 -7-7-7-7-7-7-7-7-7-7-7-7-7-7-7-7-7-7-7-7-7-7-7-7-|
 -5-5-5-5-5-5-5-5-5-5-5-5-7-7-7-7-7-7-7-7-7-7-7-7-|
 -------------------------5-5-5-5-5-5-5-5-5-5-5-5-|

lyrics

through word of mouth let it be known, 
the man who spends his life on a mission, he's legendary
travelling from coast to coast, he's contemperary johnny appleseed
he's making sure his garden grows, he'll plant a seed in every town he goes
fertilizing the countryside, couldn't stop him with insecticide
makin' sure that the garden grows, yeah, yeah, yeah
he'll water the yard with the garden hose
and you know he'll be plantin' his seed, yeah, yeah, yeah
groomin' the backyard, or whackin' a weed
when diggin' holes he'll be wearin' a glove, 
he go into the shed, get out a shovel, and he shove
he'll plant a seed makin' sure it's sown
he go into the shed, and he start hoein' with the hoe, ho, ho, ho
makin' sure that the garden grows, yeah, yeah, yeah
he'll water the yard with the garden hose
groomin' the backyard, or whackin' a weed, yeah, yeah, yeah
the contemporary johnny appleseed



NOFX albums
2003 War on Errorism
2000 Pump Up the Valuum
1997 So Long And Thanks For All The Shoes
1996 Heavy Petting Zoo
1995 I Heard They Suck Live!!
1994 Punk in Drublic
1993 The Longest Line
1993 White Trash, Two Heebs & A Bean
1991 Ribbed
1989 S & M Airlines
White Trash, Two Heebs & A Bean tabs
01Soul Doubt tabbass tab
02Stickin In My Eye tabbass tab
03Bob tabbass tab
04You're Bleeding tabbass tab
05Straight Edge tabbass tab
06Liza & Louise tabbass tab
07The Bag tabbass tab
08Please Play This Song On The Radio tabbass tab
09Warm tabbass tab
10I Wanna Be Your Baby tabbass tab
11Johnny Appleseed tabbass tab
12She's Gone tabbass tab
13Buggley Eyes tabbass tab

 

1